  0
SECTION
  2
HEADER
  9
$ACADVER
  1
AC1027
  9
$ACADMAINTVER
 70
   105
  9
$DWGCODEPAGE
  3
ANSI_1252
  9
$COMMENTS
  1
File was created by Cadenas
  9
$LASTSAVEDBY
  1
psService
  9
$CUSTOMPROPERTYTAG
  1
NB
  9
$CUSTOMPROPERTY
  1
ECX 3029A
  9
$CUSTOMPROPERTYTAG
  1
NN
  9
$CUSTOMPROPERTY
  1
Support base
  9
$CUSTOMPROPERTYTAG
  1
NT
  9
$CUSTOMPROPERTY
  1
Support base
  9
$CUSTOMPROPERTYTAG
  1
NBSYN
  9
$CUSTOMPROPERTY
  1
$CODE.
  9
$CUSTOMPROPERTYTAG
  1
LINA
  9
$CUSTOMPROPERTY
  1
ECX 3029A
  9
$CUSTOMPROPERTYTAG
  1
CATALOG
  9
$CUSTOMPROPERTY
  1
Comepi
  9
$CUSTOMPROPERTYTAG
  1
CODE
  9
$CUSTOMPROPERTY
  1
ECX 3029A
  9
$CUSTOMPROPERTYTAG
  1
DSCR
  9
$CUSTOMPROPERTY
  1
Support base
  9
$CUSTOMPROPERTYTAG
  1
MAT
  9
$CUSTOMPROPERTY
  1
Reinforced plastic
  9
$CUSTOMPROPERTYTAG
  1
COL
  9
$CUSTOMPROPERTY
  1
Grey
  9
$CUSTOMPROPERTYTAG
  1
FIX
  9
$CUSTOMPROPERTY
  1
Screws
  9
$CUSTOMPROPERTYTAG
  1
DEST
  9
$CUSTOMPROPERTY
  1
40x30
  9
$CUSTOMPROPERTYTAG
  1
SPE
  9
$CUSTOMPROPERTY
  1
12
  9
$CUSTOMPROPERTYTAG
  1
PNG
  9
$CUSTOMPROPERTY
  1
ecx_3029a.png
  9
$CUSTOMPROPERTYTAG
  1
COMPANY
  9
$CUSTOMPROPERTY
  1
comepi
  9
$REQUIREDVERSIONS
160
                 0
  9
$INSBASE
 10
0.0
 20
0.0
 30
0.0
  9
$EXTMIN
 10
-14.9
 20
-19.75
 30
0.0
  9
$EXTMAX
 10
23.32237288135593
 20
20.25542372881356
 30
0.0
  9
$LIMMIN
 10
0.0
 20
0.0
  9
$LIMMAX
 10
420.0
 20
297.0
  9
$ORTHOMODE
 70
     0
  9
$REGENMODE
 70
     1
  9
$FILLMODE
 70
     1
  9
$QTEXTMODE
 70
     0
  9
$MIRRTEXT
 70
     1
  9
$LTSCALE
 40
1.0
  9
$ATTMODE
 70
     1
  9
$TEXTSIZE
 40
2.5
  9
$TRACEWID
 40
1.0
  9
$TEXTSTYLE
  7
Standard
  9
$CLAYER
  8
0
  9
$CELTYPE
  6
ByLayer
  9
$CECOLOR
 62
   256
  9
$CELTSCALE
 40
1.0
  9
$DISPSILH
 70
     0
  9
$DIMSCALE
 40
1.0
  9
$DIMASZ
 40
2.5
  9
$DIMEXO
 40
0.625
  9
$DIMDLI
 40
3.75
  9
$DIMRND
 40
0.0
  9
$DIMDLE
 40
0.0
  9
$DIMEXE
 40
1.25
  9
$DIMTP
 40
0.0
  9
$DIMTM
 40
0.0
  9
$DIMTXT
 40
2.5
  9
$DIMCEN
 40
2.5
  9
$DIMTSZ
 40
0.0
  9
$DIMTOL
 70
     0
  9
$DIMLIM
 70
     0
  9
$DIMTIH
 70
     0
  9
$DIMTOH
 70
     0
  9
$DIMSE1
 70
     0
  9
$DIMSE2
 70
     0
  9
$DIMTAD
 70
     1
  9
$DIMZIN
 70
     8
  9
$DIMBLK
  1

  9
$DIMASO
 70
     1
  9
$DIMSHO
 70
     1
  9
$DIMPOST
  1

  9
$DIMAPOST
  1

  9
$DIMALT
 70
     0
  9
$DIMALTD
 70
     3
  9
$DIMALTF
 40
0.03937007874016
  9
$DIMLFAC
 40
1.0
  9
$DIMTOFL
 70
     1
  9
$DIMTVP
 40
0.0
  9
$DIMTIX
 70
     0
  9
$DIMSOXD
 70
     0
  9
$DIMSAH
 70
     0
  9
$DIMBLK1
  1

  9
$DIMBLK2
  1

  9
$DIMSTYLE
  2
ISO-25
  9
$DIMCLRD
 70
     0
  9
$DIMCLRE
 70
     0
  9
$DIMCLRT
 70
     0
  9
$DIMTFAC
 40
1.0
  9
$DIMGAP
 40
0.625
  9
$DIMJUST
 70
     0
  9
$DIMSD1
 70
     0
  9
$DIMSD2
 70
     0
  9
$DIMTOLJ
 70
     0
  9
$DIMTZIN
 70
     8
  9
$DIMALTZ
 70
     0
  9
$DIMALTTZ
 70
     0
  9
$DIMUPT
 70
     0
  9
$DIMDEC
 70
     2
  9
$DIMTDEC
 70
     2
  9
$DIMALTU
 70
     2
  9
$DIMALTTD
 70
     3
  9
$DIMTXSTY
  7
Standard
  9
$DIMAUNIT
 70
     0
  9
$DIMADEC
 70
     0
  9
$DIMALTRND
 40
0.0
  9
$DIMAZIN
 70
     0
  9
$DIMDSEP
 70
    44
  9
$DIMATFIT
 70
     3
  9
$DIMFRAC
 70
     0
  9
$DIMLDRBLK
  1

  9
$DIMLUNIT
 70
     2
  9
$DIMLWD
 70
    -2
  9
$DIMLWE
 70
    -2
  9
$DIMTMOVE
 70
     0
  9
$DIMFXL
 40
1.0
  9
$DIMFXLON
 70
     0
  9
$DIMJOGANG
 40
0.7853981633974483
  9
$DIMTFILL
 70
     0
  9
$DIMTFILLCLR
 70
     0
  9
$DIMARCSYM
 70
     0
  9
$DIMLTYPE
  6

  9
$DIMLTEX1
  6

  9
$DIMLTEX2
  6

  9
$DIMTXTDIRECTION
 70
     0
  9
$LUNITS
 70
     2
  9
$LUPREC
 70
     4
  9
$SKETCHINC
 40
1.0
  9
$FILLETRAD
 40
0.0
  9
$AUNITS
 70
     0
  9
$AUPREC
 70
     0
  9
$MENU
  1
.
  9
$ELEVATION
 40
0.0
  9
$PELEVATION
 40
0.0
  9
$THICKNESS
 40
0.0
  9
$LIMCHECK
 70
     0
  9
$CHAMFERA
 40
0.0
  9
$CHAMFERB
 40
0.0
  9
$CHAMFERC
 40
0.0
  9
$CHAMFERD
 40
0.0
  9
$SKPOLY
 70
     0
  9
$TDCREATE
 40
2460938.665897188
  9
$TDUCREATE
 40
2460938.582563855
  9
$TDUPDATE
 40
2460938.665897373
  9
$TDUUPDATE
 40
2460938.582564039
  9
$TDINDWG
 40
0.0000000116
  9
$TDUSRTIMER
 40
0.0000000116
  9
$USRTIMER
 70
     1
  9
$ANGBASE
 50
0.0
  9
$ANGDIR
 70
     0
  9
$PDMODE
 70
     0
  9
$PDSIZE
 40
0.0
  9
$PLINEWID
 40
0.0
  9
$SPLFRAME
 70
     0
  9
$SPLINETYPE
 70
     6
  9
$SPLINESEGS
 70
     8
  9
$HANDSEED
  5
1CA
  9
$SURFTAB1
 70
     6
  9
$SURFTAB2
 70
     6
  9
$SURFTYPE
 70
     6
  9
$SURFU
 70
     6
  9
$SURFV
 70
     6
  9
$UCSBASE
  2

  9
$UCSNAME
  2

  9
$UCSORG
 10
0.0
 20
0.0
 30
0.0
  9
$UCSXDIR
 10
1.0
 20
0.0
 30
0.0
  9
$UCSYDIR
 10
0.0
 20
1.0
 30
0.0
  9
$UCSORTHOREF
  2

  9
$UCSORTHOVIEW
 70
     0
  9
$UCSORGTOP
 10
0.0
 20
0.0
 30
0.0
  9
$UCSORGBOTTOM
 10
0.0
 20
0.0
 30
0.0
  9
$UCSORGLEFT
 10
0.0
 20
0.0
 30
0.0
  9
$UCSORGRIGHT
 10
0.0
 20
0.0
 30
0.0
  9
$UCSORGFRONT
 10
0.0
 20
0.0
 30
0.0
  9
$UCSORGBACK
 10
0.0
 20
0.0
 30
0.0
  9
$PUCSBASE
  2

  9
$PUCSNAME
  2

  9
$PUCSORG
 10
0.0
 20
0.0
 30
0.0
  9
$PUCSXDIR
 10
1.0
 20
0.0
 30
0.0
  9
$PUCSYDIR
 10
0.0
 20
1.0
 30
0.0
  9
$PUCSORTHOREF
  2

  9
$PUCSORTHOVIEW
 70
     0
  9
$PUCSORGTOP
 10
0.0
 20
0.0
 30
0.0
  9
$PUCSORGBOTTOM
 10
0.0
 20
0.0
 30
0.0
  9
$PUCSORGLEFT
 10
0.0
 20
0.0
 30
0.0
  9
$PUCSORGRIGHT
 10
0.0
 20
0.0
 30
0.0
  9
$PUCSORGFRONT
 10
0.0
 20
0.0
 30
0.0
  9
$PUCSORGBACK
 10
0.0
 20
0.0
 30
0.0
  9
$USERI1
 70
     0
  9
$USERI2
 70
     0
  9
$USERI3
 70
     0
  9
$USERI4
 70
     0
  9
$USERI5
 70
     0
  9
$USERR1
 40
0.0
  9
$USERR2
 40
0.0
  9
$USERR3
 40
0.0
  9
$USERR4
 40
0.0
  9
$USERR5
 40
0.0
  9
$WORLDVIEW
 70
     1
  9
$SHADEDGE
 70
     3
  9
$SHADEDIF
 70
    70
  9
$TILEMODE
 70
     1
  9
$MAXACTVP
 70
    64
  9
$PINSBASE
 10
0.0
 20
0.0
 30
0.0
  9
$PLIMCHECK
 70
     0
  9
$PEXTMIN
 10
1.000000000000000E+20
 20
1.000000000000000E+20
 30
1.000000000000000E+20
  9
$PEXTMAX
 10
-1.000000000000000E+20
 20
-1.000000000000000E+20
 30
-1.000000000000000E+20
  9
$PLIMMIN
 10
0.0
 20
0.0
  9
$PLIMMAX
 10
420.0
 20
297.0
  9
$UNITMODE
 70
     0
  9
$VISRETAIN
 70
     1
  9
$PLINEGEN
 70
     0
  9
$PSLTSCALE
 70
     1
  9
$TREEDEPTH
 70
  3020
  9
$CMLSTYLE
  2
Standard
  9
$CMLJUST
 70
     0
  9
$CMLSCALE
 40
20.0
  9
$PROXYGRAPHICS
 70
     1
  9
$MEASUREMENT
 70
     1
  9
$CELWEIGHT
370
    -1
  9
$ENDCAPS
280
     0
  9
$JOINSTYLE
280
     0
  9
$LWDISPLAY
290
     0
  9
$INSUNITS
 70
     4
  9
$HYPERLINKBASE
  1

  9
$STYLESHEET
  1

  9
$XEDIT
290
     1
  9
$CEPSNTYPE
380
     0
  9
$PSTYLEMODE
290
     1
  9
$FINGERPRINTGUID
  2
{d7075359-2410-422e-8a16-805a0b5b9b64}
  9
$VERSIONGUID
  2
{FAEB1C32-E019-11D5-929B-00C0DF256EC4}
  9
$EXTNAMES
290
     1
  9
$PSVPSCALE
 40
0.0
  9
$OLESTARTUP
290
     0
  9
$SORTENTS
280
   127
  9
$INDEXCTL
280
     0
  9
$HIDETEXT
280
     1
  9
$XCLIPFRAME
280
     2
  9
$HALOGAP
280
     0
  9
$OBSCOLOR
 70
   257
  9
$OBSLTYPE
280
     0
  9
$INTERSECTIONDISPLAY
280
     0
  9
$INTERSECTIONCOLOR
 70
   257
  9
$DIMASSOC
280
     2
  9
$PROJECTNAME
  1

  9
$CAMERADISPLAY
290
     0
  9
$LENSLENGTH
 40
50.0
  9
$CAMERAHEIGHT
 40
0.0
  9
$STEPSPERSEC
 40
2.0
  9
$STEPSIZE
 40
6.0
  9
$3DDWFPREC
 40
2.0
  9
$PSOLWIDTH
 40
5.0
  9
$PSOLHEIGHT
 40
80.0
  9
$LOFTANG1
 40
1.570796326794897
  9
$LOFTANG2
 40
1.570796326794897
  9
$LOFTMAG1
 40
0.0
  9
$LOFTMAG2
 40
0.0
  9
$LOFTPARAM
 70
     7
  9
$LOFTNORMALS
280
     1
  9
$LATITUDE
 40
37.795
  9
$LONGITUDE
 40
-122.394
  9
$NORTHDIRECTION
 40
0.0
  9
$TIMEZONE
 70
 -8000
  9
$LIGHTGLYPHDISPLAY
280
     1
  9
$TILEMODELIGHTSYNCH
280
     1
  9
$CMATERIAL
347
44
  9
$SOLIDHIST
280
     0
  9
$SHOWHIST
280
     1
  9
$DWFFRAME
280
     2
  9
$DGNFRAME
280
     2
  9
$REALWORLDSCALE
290
     1
  9
$INTERFERECOLOR
 62
   256
  9
$CSHADOW
280
     0
  9
$SHADOWPLANELOCATION
 40
0.0
  0
ENDSEC
  0
SECTION
  2
CLASSES
  0
CLASS
  1
ACDBDICTIONARYWDFLT
  2
AcDbDictionaryWithDefault
  3
ObjectDBX Classes
 90
        0
 91
        3
280
     0
281
     0
  0
CLASS
  1
VISUALSTYLE
  2
AcDbVisualStyle
  3
ObjectDBX Classes
 90
     4095
 91
        3
280
     0
281
     0
  0
CLASS
  1
MATERIAL
  2
AcDbMaterial
  3
ObjectDBX Classes
 90
     1153
 91
        3
280
     0
281
     0
  0
CLASS
  1
SCALE
  2
AcDbScale
  3
ObjectDBX Classes
 90
     1153
 91
        3
280
     0
281
     0
  0
CLASS
  1
TABLESTYLE
  2
AcDbTableStyle
  3
ObjectDBX Classes
 90
     4095
 91
        3
280
     0
281
     0
  0
CLASS
  1
MLEADERSTYLE
  2
AcDbMLeaderStyle
  3
ACDB_MLEADERSTYLE_CLASS
 90
     4095
 91
        3
280
     0
281
     0
  0
CLASS
  1
SUN
  2
AcDbSun
  3
SCENEOE
 90
     1153
 91
        3
280
     0
281
     0
  0
CLASS
  1
DICTIONARYVAR
  2
AcDbDictionaryVar
  3
ObjectDBX Classes
 90
        0
 91
        3
280
     0
281
     0
  0
CLASS
  1
CELLSTYLEMAP
  2
AcDbCellStyleMap
  3
ObjectDBX Classes
 90
     1152
 91
        3
280
     0
281
     0
  0
ENDSEC
  0
SECTION
  2
TABLES
  0
TABLE
  2
VPORT
  5
8
330
0
100
AcDbSymbolTable
 70
     1
  0
VPORT
  5
29
330
8
100
AcDbSymbolTableRecord
100
AcDbViewportTableRecord
  2
*Active
 70
     0
 10
0.0
 20
0.0
 11
1.0
 21
1.0
 12
4.25
 22
0.3016949152542452
 13
0.0
 23
0.0
 14
10.0
 24
10.0
 15
10.0
 25
10.0
 16
0.0
 26
0.0
 36
1.0
 17
0.0
 27
0.0
 37
0.0
 40
40.90545762711866
 41
0.9550314864122381
 42
50.0
 43
0.0
 44
0.0
 50
0.0
 51
0.0
 71
     0
 72
   100
 73
     1
 74
     3
 75
     0
 76
     0
 77
     0
 78
     0
281
     0
 65
     1
110
0.0
120
0.0
130
0.0
111
1.0
121
0.0
131
0.0
112
0.0
122
1.0
132
0.0
 79
     0
146
0.0
348
2F
 60
     3
 61
     5
292
     1
282
     1
141
0.0
142
0.0
 63
   250
361
5D
  0
ENDTAB
  0
TABLE
  2
LTYPE
  5
5
330
0
100
AcDbSymbolTable
 70
     3
  0
LTYPE
  5
14
330
5
100
AcDbSymbolTableRecord
100
AcDbLinetypeTableRecord
  2
ByBlock
 70
     0
  3

 72
    65
 73
     0
 40
0.0
  0
LTYPE
  5
15
330
5
100
AcDbSymbolTableRecord
100
AcDbLinetypeTableRecord
  2
ByLayer
 70
     0
  3

 72
    65
 73
     0
 40
0.0
  0
LTYPE
  5
16
330
5
100
AcDbSymbolTableRecord
100
AcDbLinetypeTableRecord
  2
Continuous
 70
     0
  3
Solid line
 72
    65
 73
     0
 40
0.0
  0
LTYPE
  5
70
330
5
100
AcDbSymbolTableRecord
100
AcDbLinetypeTableRecord
  2
Dashed
 70
     0
  3

 72
    65
 73
     2
 40
2.0
 49
1.0
 74
     0
 49
-1.0
 74
     0
  0
LTYPE
  5
1AB
330
5
100
AcDbSymbolTableRecord
100
AcDbLinetypeTableRecord
  2
Center
 70
     0
  3

 72
    65
 73
     4
 40
1.5
 49
0.45
 74
     0
 49
-0.5
 74
     0
 49
0.05
 74
     0
 49
-0.5
 74
     0
  0
ENDTAB
  0
TABLE
  2
LAYER
  5
2
330
0
100
AcDbSymbolTable
 70
     8
  0
LAYER
  5
10
330
2
100
AcDbSymbolTableRecord
100
AcDbLayerTableRecord
  2
0
 70
     0
 62
     7
  6
Continuous
370
    -3
390
F
347
46
348
0
  0
LAYER
  5
5E
330
2
100
AcDbSymbolTableRecord
100
AcDbLayerTableRecord
  2
AM_6
 70
     0
 62
    -2
  6
Continuous
370
    35
390
F
347
46
348
0
  0
LAYER
  5
71
330
2
100
AcDbSymbolTableRecord
100
AcDbLayerTableRecord
  2
AM_9
 70
     0
 62
     6
  6
Dashed
370
    25
390
F
347
46
348
0
  0
LAYER
  5
78
330
2
100
AcDbSymbolTableRecord
100
AcDbLayerTableRecord
  2
AM_0
 70
     0
 62
     7
  6
Continuous
370
    50
390
F
347
46
348
0
  0
LAYER
  5
17C
330
2
100
AcDbSymbolTableRecord
100
AcDbLayerTableRecord
  2
AM_4
 70
     0
 62
     3
  6
Continuous
370
    25
390
F
347
46
348
0
  0
LAYER
  5
1A8
330
2
100
AcDbSymbolTableRecord
100
AcDbLayerTableRecord
  2
AM_5
 70
     0
 62
     3
  6
Continuous
370
    25
390
F
347
46
348
0
  0
LAYER
  5
1AC
330
2
100
AcDbSymbolTableRecord
100
AcDbLayerTableRecord
  2
AM_7
 70
     0
 62
     7
  6
Center
370
    25
390
F
347
46
348
0
  0
LAYER
  5
1B9
330
2
100
AcDbSymbolTableRecord
100
AcDbLayerTableRecord
  2
2d ConnectionPoints
 70
     0
 62
     7
  6
Continuous
370
    50
390
F
347
46
348
0
  0
ENDTAB
  0
TABLE
  2
STYLE
  5
3
330
0
100
AcDbSymbolTable
 70
     1
  0
STYLE
  5
11
330
3
100
AcDbSymbolTableRecord
100
AcDbTextStyleTableRecord
  2
Standard
 70
     0
 40
0.0
 41
1.0
 50
0.0
 71
     0
 42
2.5
  3
txt
  4

  0
ENDTAB
  0
TABLE
  2
VIEW
  5
6
330
0
100
AcDbSymbolTable
 70
     0
  0
ENDTAB
  0
TABLE
  2
UCS
  5
7
330
0
100
AcDbSymbolTable
 70
     0
  0
ENDTAB
  0
TABLE
  2
APPID
  5
9
330
0
100
AcDbSymbolTable
 70
     1
  0
APPID
  5
12
330
9
100
AcDbSymbolTableRecord
100
AcDbRegAppTableRecord
  2
ACAD
 70
     0
  0
ENDTAB
  0
TABLE
  2
DIMSTYLE
  5
A
330
0
100
AcDbSymbolTable
 70
     1
100
AcDbDimStyleTable
  0
DIMSTYLE
105
27
330
A
100
AcDbSymbolTableRecord
100
AcDbDimStyleTableRecord
  2
ISO-25
 70
     0
 41
2.5
 42
0.625
 43
3.75
 44
1.25
 73
     0
 74
     0
 77
     1
 78
     8
140
2.5
141
2.5
143
0.03937007874016
147
0.625
171
     3
172
     1
178
     0
271
     2
272
     2
274
     3
278
    44
283
     0
284
     8
340
11
  0
ENDTAB
  0
TABLE
  2
BLOCK_RECORD
  5
1
330
0
100
AcDbSymbolTable
 70
     1
  0
BLOCK_RECORD
  5
1F
330
1
100
AcDbSymbolTableRecord
100
AcDbBlockTableRecord
  2
*Model_Space
340
22
 70
     0
280
     1
281
     0
  0
BLOCK_RECORD
  5
1B
330
1
100
AcDbSymbolTableRecord
100
AcDbBlockTableRecord
  2
*Paper_Space
340
1E
 70
     0
280
     1
281
     0
  0
BLOCK_RECORD
  5
23
330
1
100
AcDbSymbolTableRecord
100
AcDbBlockTableRecord
  2
*Paper_Space0
340
26
 70
     0
280
     1
281
     0
  0
ENDTAB
  0
ENDSEC
  0
SECTION
  2
BLOCKS
  0
BLOCK
  5
20
330
1F
100
AcDbEntity
  8
0
100
AcDbBlockBegin
  2
*Model_Space
 70
     2
 10
0.0
 20
0.0
 30
0.0
  3
*Model_Space
  1

  0
ENDBLK
  5
21
330
1F
100
AcDbEntity
  8
0
100
AcDbBlockEnd
  0
BLOCK
  5
1C
330
1B
100
AcDbEntity
 67
     1
  8
0
100
AcDbBlockBegin
  2
*Paper_Space
 70
     0
 10
0.0
 20
0.0
 30
0.0
  3
*Paper_Space
  1

  0
ENDBLK
  5
1D
330
1B
100
AcDbEntity
 67
     1
  8
0
100
AcDbBlockEnd
  0
BLOCK
  5
24
330
23
100
AcDbEntity
  8
0
100
AcDbBlockBegin
  2
*Paper_Space0
 70
     0
 10
0.0
 20
0.0
 30
0.0
  3
*Paper_Space0
  1

  0
ENDBLK
  5
25
330
23
100
AcDbEntity
  8
0
100
AcDbBlockEnd
  0
ENDSEC
  0
SECTION
  2
ENTITIES
  0
ATTDEF
  5
5F
330
1F
100
AcDbEntity
  8
AM_6
100
AcDbText
 10
19.9
 20
19.75
 30
0.0
 40
0.5
  1
ECX 3029A
100
AcDbAttributeDefinition
  3

  2
NB
 70
     8
280
     0
  0
ATTDEF
  5
60
330
1F
100
AcDbEntity
  8
AM_6
100
AcDbText
 10
19.9
 20
19.25
 30
0.0
 40
0.5
  1
Support base
100
AcDbAttributeDefinition
  3

  2
NN
 70
     8
280
     0
  0
ATTDEF
  5
61
330
1F
100
AcDbEntity
  8
AM_6
100
AcDbText
 10
19.9
 20
18.75
 30
0.0
 40
0.5
  1
Support base
100
AcDbAttributeDefinition
  3

  2
NT
 70
     8
280
     0
  0
ATTDEF
  5
62
330
1F
100
AcDbEntity
  8
AM_6
100
AcDbText
 10
19.9
 20
18.25
 30
0.0
 40
0.5
  1
$CODE.
100
AcDbAttributeDefinition
  3

  2
NBSYN
 70
     8
280
     0
  0
ATTDEF
  5
63
330
1F
100
AcDbEntity
  8
AM_6
100
AcDbText
 10
19.9
 20
17.75
 30
0.0
 40
0.5
  1
ECX 3029A
100
AcDbAttributeDefinition
  3

  2
LINA
 70
     8
280
     0
  0
ATTDEF
  5
64
330
1F
100
AcDbEntity
  8
AM_6
100
AcDbText
 10
19.9
 20
17.25
 30
0.0
 40
0.5
  1
Comepi
100
AcDbAttributeDefinition
  3

  2
CATALOG
 70
     8
280
     0
  0
ATTDEF
  5
65
330
1F
100
AcDbEntity
  8
AM_6
100
AcDbText
 10
19.9
 20
16.75
 30
0.0
 40
0.5
  1
ECX 3029A
100
AcDbAttributeDefinition
  3

  2
CODE
 70
     8
280
     0
  0
ATTDEF
  5
66
330
1F
100
AcDbEntity
  8
AM_6
100
AcDbText
 10
19.9
 20
16.25
 30
0.0
 40
0.5
  1
Support base
100
AcDbAttributeDefinition
  3

  2
DSCR
 70
     8
280
     0
  0
ATTDEF
  5
67
330
1F
100
AcDbEntity
  8
AM_6
100
AcDbText
 10
19.9
 20
15.75
 30
0.0
 40
0.5
  1
Reinforced plastic
100
AcDbAttributeDefinition
  3

  2
MAT
 70
     8
280
     0
  0
ATTDEF
  5
68
330
1F
100
AcDbEntity
  8
AM_6
100
AcDbText
 10
19.9
 20
15.25
 30
0.0
 40
0.5
  1
Grey
100
AcDbAttributeDefinition
  3

  2
COL
 70
     8
280
     0
  0
ATTDEF
  5
69
330
1F
100
AcDbEntity
  8
AM_6
100
AcDbText
 10
19.9
 20
14.75
 30
0.0
 40
0.5
  1
Screws
100
AcDbAttributeDefinition
  3

  2
FIX
 70
     8
280
     0
  0
ATTDEF
  5
6A
330
1F
100
AcDbEntity
  8
AM_6
100
AcDbText
 10
19.9
 20
14.25
 30
0.0
 40
0.5
  1
40x30
100
AcDbAttributeDefinition
  3

  2
DEST
 70
     8
280
     0
  0
ATTDEF
  5
6B
330
1F
100
AcDbEntity
  8
AM_6
100
AcDbText
 10
19.9
 20
13.75
 30
0.0
 40
0.5
  1
12
100
AcDbAttributeDefinition
  3

  2
SPE
 70
     8
280
     0
  0
ATTDEF
  5
6C
330
1F
100
AcDbEntity
  8
AM_6
100
AcDbText
 10
19.9
 20
13.25
 30
0.0
 40
0.5
  1
ecx_3029a.png
100
AcDbAttributeDefinition
  3

  2
PNG
 70
     8
280
     0
  0
ATTDEF
  5
6D
330
1F
100
AcDbEntity
  8
AM_6
100
AcDbText
 10
19.9
 20
12.75
 30
0.0
 40
0.5
  1
comepi
100
AcDbAttributeDefinition
  3

  2
COMPANY
 70
     8
280
     0
  0
ATTDEF
  5
6E
330
1F
100
AcDbEntity
  8
AM_6
100
AcDbText
 10
19.9
 20
12.25
 30
0.0
 40
0.5
  1
{$CADENAS_DATA/23d-libs/comepi/control_units/contact_base/base/support_base.prj},164 {VTYP=3D},{NB=ECX 3029A},{LINA=ECX 3029A},{NN=Support base},{DATE=11.02.2025 08:50:39},{GEOMDATE=01.07.2021 05:11:00},{VERSION=},{LINEID=20},{WBVAR=},{WBNUMERIC=}  
100
AcDbAttributeDefinition
  3

  2
PSOL_0
 70
     9
280
     0
  0
ATTDEF
  5
6F
330
1F
100
AcDbEntity
  8
AM_6
100
AcDbText
 10
19.9
 20
11.75
 30
0.0
 40
0.5
  1
X 3029A},{LINA=ECX 3029A},{KT=DUMMY},{CODE=ECX 3029A},{DSCR=Base di supporto},{MAT=Plastica rinforzata},{COL=Grigio},{FIX=Viti},{DEST=40x30},{SPE=12},{COLX=0.749,0.749,0.749,},{PNG=ecx_3029a.png}
100
AcDbAttributeDefinition
  3

  2
PSOL_1
 70
     9
280
     0
  0
LINE
  5
72
330
1F
100
AcDbEntity
  8
AM_9
100
AcDbLine
 10
-1.850000000000001
 20
-12.75405963181308
 30
0.0
 11
-1.461105583260364
 21
-12.75405963181308
 31
0.0
  0
LINE
  5
73
330
1F
100
AcDbEntity
  8
AM_9
100
AcDbLine
 10
1.461105583260368
 20
-12.75405963181308
 30
0.0
 11
1.850000000000001
 21
-12.75405963181308
 31
0.0
  0
LINE
  5
74
330
1F
100
AcDbEntity
  8
AM_9
100
AcDbLine
 10
1.850000000000001
 20
12.75405963181308
 30
0.0
 11
1.461105583260361
 21
12.75405963181308
 31
0.0
  0
LINE
  5
75
330
1F
100
AcDbEntity
  8
AM_9
100
AcDbLine
 10
-1.461105583260364
 20
12.75405963181308
 30
0.0
 11
-1.850000000000001
 21
12.75405963181308
 31
0.0
  0
ARC
  5
76
330
1F
100
AcDbEntity
  8
AM_9
100
AcDbCircle
 10
0.0000000000000071
 20
-0.0000000000000033
 30
0.0
 40
10.87000000000001
100
AcDbArc
 50
167.8428055700967
 51
199.1542353935278
  0
ARC
  5
77
330
1F
100
AcDbEntity
  8
AM_9
100
AcDbCircle
 10
0.0000000000000231
 20
0.0000000000000019
 30
0.0
 40
10.86999999999998
100
AcDbArc
 50
347.8636243480711
 51
19.15423539352791
  0
ARC
  5
79
330
1F
100
AcDbEntity
  8
AM_0
100
AcDbCircle
 10
-0.0000000000001297
 20
0.0000000000000003
 30
0.0
 40
12.00000000000013
100
AcDbArc
 50
354.450599936214
 51
5.549400063786007
  0
ARC
  5
7A
330
1F
100
AcDbEntity
  8
AM_0
100
AcDbCircle
 10
-0.0000000000000586
 20
-0.0000000000000097
 30
0.0
 40
11.99999999999994
100
AcDbArc
 50
174.4505999362138
 51
185.549400063786
  0
ARC
  5
7B
330
1F
100
AcDbEntity
  8
AM_0
100
AcDbCircle
 10
-0.0000000000000053
 20
0.0000000000000009
 30
0.0
 40
10.02
100
AcDbArc
 50
311.5109040702785
 51
17.24193757759703
  0
ARC
  5
7C
330
1F
100
AcDbEntity
  8
AM_9
100
AcDbCircle
 10
0.0000000001633511
 20
-0.0000000001863238
 30
0.0
 40
10.01999999975221
100
AcDbArc
 50
311.01908410065
 51
311.5109040702852
  0
LINE
  5
7D
330
1F
100
AcDbEntity
  8
AM_9
100
AcDbLine
 10
6.576229922987791
 20
-7.559999999999998
 30
0.0
 11
7.133880126144382
 21
-8.201503175991716
 31
0.0
  0
ARC
  5
7E
330
1F
100
AcDbEntity
  8
AM_0
100
AcDbCircle
 10
-0.0000000000000266
 20
0.0000000000000071
 30
0.0
 40
10.01999999999997
100
AcDbArc
 50
131.5109040702784
 51
197.2419375775972
  0
ARC
  5
7F
330
1F
100
AcDbEntity
  8
AM_9
100
AcDbCircle
 10
-0.0000000000092228
 20
0.0000000000107416
 30
0.0
 40
10.01999999998584
100
AcDbArc
 50
131.019084100656
 51
131.5109040702798
  0
LINE
  5
80
330
1F
100
AcDbEntity
  8
AM_9
100
AcDbLine
 10
-6.576229922987788
 20
7.560000000000001
 30
0.0
 11
-7.133880126144376
 21
8.20150317599172
 31
0.0
  0
LINE
  5
81
330
1F
100
AcDbEntity
  8
AM_9
100
AcDbLine
 10
-1.850000000000001
 20
16.27019018294784
 30
0.0
 11
1.850000000000001
 21
16.27019018294784
 31
0.0
  0
LINE
  5
82
330
1F
100
AcDbEntity
  8
AM_9
100
AcDbLine
 10
1.850000000000001
 20
-16.27019018294784
 30
0.0
 11
-1.850000000000001
 21
-16.27019018294784
 31
0.0
  0
ARC
  5
83
330
1F
100
AcDbEntity
  8
AM_9
100
AcDbCircle
 10
0.0000000000000817
 20
-0.000000000000087
 30
0.0
 40
12.50000000000011
100
AcDbArc
 50
115.3769335251524
 51
150.5857976373001
  0
LINE
  5
84
330
1F
100
AcDbEntity
  8
AM_9
100
AcDbLine
 10
-13.58
 20
4.1
 30
0.0
 11
-13.58
 21
-4.1
 31
0.0
  0
ARC
  5
85
330
1F
100
AcDbEntity
  8
AM_9
100
AcDbCircle
 10
-13.55
 20
6.359999999999999
 30
0.0
 40
0.4499999999999975
100
AcDbArc
 50
179.9999999999997
 51
270.0000000000007
  0
ARC
  5
86
330
1F
100
AcDbEntity
  8
AM_9
100
AcDbCircle
 10
-5.999999999999995
 20
17.50000000000001
 30
0.0
 40
1.499999999999994
100
AcDbArc
 50
359.9999999999997
 51
90.0000000000002
  0
LINE
  5
87
330
1F
100
AcDbEntity
  8
AM_9
100
AcDbLine
 10
-4.500000000000003
 20
12.64911064067352
 30
0.0
 11
-4.500000000000001
 21
17.5
 31
0.0
  0
LINE
  5
88
330
1F
100
AcDbEntity
  8
AM_9
100
AcDbLine
 10
13.58
 20
-4.100000000000003
 30
0.0
 11
13.58
 21
4.100000000000003
 31
0.0
  0
LINE
  5
89
330
1F
100
AcDbEntity
  8
AM_9
100
AcDbLine
 10
-13.58
 20
-4.1
 30
0.0
 11
-11.27785440586994
 21
-4.1
 31
0.0
  0
LINE
  5
8A
330
1F
100
AcDbEntity
  8
AM_9
100
AcDbLine
 10
-13.55
 20
5.910000000000001
 30
0.0
 11
-11.28064271218622
 21
5.91
 31
0.0
  0
ARC
  5
8B
330
1F
100
AcDbEntity
  8
AM_9
100
AcDbCircle
 10
10.84999999999999
 20
-15.85
 30
0.0
 40
3.150000000000002
100
AcDbArc
 50
270.0000000000002
 51
0.0000000000000969
  0
LINE
  5
8C
330
1F
100
AcDbEntity
  8
AM_9
100
AcDbLine
 10
13.55
 20
-5.909999999999994
 30
0.0
 11
11.28064271218623
 21
-5.909999999999993
 31
0.0
  0
LINE
  5
8D
330
1F
100
AcDbEntity
  8
AM_9
100
AcDbLine
 10
14.0
 20
-15.84999999999999
 30
0.0
 11
14.0
 21
-6.359999999999998
 31
0.0
  0
LINE
  5
8E
330
1F
100
AcDbEntity
  8
AM_9
100
AcDbLine
 10
4.5
 20
-12.64911064067351
 30
0.0
 11
4.500000000000001
 21
-17.5
 31
0.0
  0
ARC
  5
8F
330
1F
100
AcDbEntity
  8
AM_9
100
AcDbCircle
 10
5.999999999999995
 20
-17.50000000000001
 30
0.0
 40
1.499999999999994
100
AcDbArc
 50
179.9999999999997
 51
270.0000000000002
  0
LINE
  5
90
330
1F
100
AcDbEntity
  8
AM_9
100
AcDbLine
 10
6.0
 20
-19.0
 30
0.0
 11
10.85
 21
-19.0
 31
0.0
  0
ARC
  5
91
330
1F
100
AcDbEntity
  8
AM_9
100
AcDbCircle
 10
13.55
 20
-6.35999999999999
 30
0.0
 40
0.4499999999999957
100
AcDbArc
 50
359.999999999999
 51
90.0000000000009
  0
ARC
  5
92
330
1F
100
AcDbEntity
  8
AM_9
100
AcDbCircle
 10
11.28064271218623
 20
-6.360000000000004
 30
0.0
 40
0.4500000000000108
100
AcDbArc
 50
90.00000000000024
 51
150.5857977781079
  0
ARC
  5
93
330
1F
100
AcDbEntity
  8
AM_9
100
AcDbCircle
 10
0.0000000000000364
 20
-0.0000000000000444
 30
0.0
 40
12.49999999999995
100
AcDbArc
 50
295.3769335251523
 51
330.5857977781083
  0
ARC
  5
94
330
1F
100
AcDbEntity
  8
AM_9
100
AcDbCircle
 10
5.999999999999981
 20
-12.64911064067351
 30
0.0
 40
1.499999999999981
100
AcDbArc
 50
115.3769335251515
 51
180.0
  0
LINE
  5
95
330
1F
100
AcDbEntity
  8
AM_9
100
AcDbLine
 10
13.58
 20
4.100000000000003
 30
0.0
 11
11.27785440586994
 21
4.100000000000003
 31
0.0
  0
LINE
  5
96
330
1F
100
AcDbEntity
  8
AM_9
100
AcDbLine
 10
-10.85
 20
-19.0
 30
0.0
 11
-6.0
 21
-19.0
 31
0.0
  0
LINE
  5
97
330
1F
100
AcDbEntity
  8
AM_9
100
AcDbLine
 10
-6.0
 20
19.0
 30
0.0
 11
-10.85
 21
19.0
 31
0.0
  0
LINE
  5
98
330
1F
100
AcDbEntity
  8
AM_9
100
AcDbLine
 10
-4.499999999999999
 20
-17.5
 30
0.0
 11
-4.500000000000001
 21
-12.64911064067352
 31
0.0
  0
ARC
  5
99
330
1F
100
AcDbEntity
  8
AM_9
100
AcDbCircle
 10
0.0000000000000107
 20
0.0000000000000133
 30
0.0
 40
12.50000000000001
100
AcDbArc
 50
209.4142022218919
 51
244.6230664748477
  0
ARC
  5
9A
330
1F
100
AcDbEntity
  8
AM_9
100
AcDbCircle
 10
-13.55
 20
-6.359999999999999
 30
0.0
 40
0.4499999999999993
100
AcDbArc
 50
89.99999999999955
 51
180.0000000000001
  0
LINE
  5
9B
330
1F
100
AcDbEntity
  8
AM_9
100
AcDbLine
 10
-14.0
 20
-6.36
 30
0.0
 11
-14.0
 21
-15.85
 31
0.0
  0
ARC
  5
9C
330
1F
100
AcDbEntity
  8
AM_9
100
AcDbCircle
 10
-10.85
 20
-15.85
 30
0.0
 40
3.149999999999999
100
AcDbArc
 50
180.0
 51
269.9999999999999
  0
ARC
  5
9D
330
1F
100
AcDbEntity
  8
AM_9
100
AcDbCircle
 10
-5.999999999999997
 20
-17.5
 30
0.0
 40
1.5
100
AcDbArc
 50
269.9999999999999
 51
0.0
  0
ARC
  5
9E
330
1F
100
AcDbEntity
  8
AM_9
100
AcDbCircle
 10
-6.000000000000005
 20
-12.64911064067352
 30
0.0
 40
1.500000000000004
100
AcDbArc
 50
0.0
 51
64.62306647484748
  0
ARC
  5
9F
330
1F
100
AcDbEntity
  8
AM_9
100
AcDbCircle
 10
-11.28064271218621
 20
-6.360000000000004
 30
0.0
 40
0.4500000000000014
100
AcDbArc
 50
29.41420222189164
 51
89.99999999999977
  0
LINE
  5
A0
330
1F
100
AcDbEntity
  8
AM_9
100
AcDbLine
 10
-11.28064271218621
 20
-5.910000000000001
 30
0.0
 11
-13.55
 21
-5.91
 31
0.0
  0
LINE
  5
A1
330
1F
100
AcDbEntity
  8
AM_9
100
AcDbLine
 10
-11.27785440586994
 20
4.1
 30
0.0
 11
-13.58
 21
4.1
 31
0.0
  0
LINE
  5
A2
330
1F
100
AcDbEntity
  8
AM_9
100
AcDbLine
 10
-14.0
 20
15.85
 30
0.0
 11
-14.0
 21
6.360000000000001
 31
0.0
  0
ARC
  5
A3
330
1F
100
AcDbEntity
  8
AM_9
100
AcDbCircle
 10
-10.85000000000001
 20
15.85000000000001
 30
0.0
 40
3.14999999999999
100
AcDbArc
 50
89.99999999999982
 51
180.0000000000002
  0
ARC
  5
A4
330
1F
100
AcDbEntity
  8
AM_9
100
AcDbCircle
 10
5.999999999999995
 20
17.5
 30
0.0
 40
1.499999999999996
100
AcDbArc
 50
89.99999999999982
 51
180.0000000000002
  0
LINE
  5
A5
330
1F
100
AcDbEntity
  8
AM_9
100
AcDbLine
 10
11.27785440586994
 20
-4.100000000000003
 30
0.0
 11
13.58
 21
-4.100000000000003
 31
0.0
  0
ARC
  5
A6
330
1F
100
AcDbEntity
  8
AM_9
100
AcDbCircle
 10
0.0000000000000107
 20
-0.0000000000000009
 30
0.0
 40
11.99999999999999
100
AcDbArc
 50
340.0215510205343
 51
354.4505999362139
  0
ARC
  5
A7
330
1F
100
AcDbEntity
  8
AM_9
100
AcDbCircle
 10
0.0000000000000568
 20
0.0000000000000173
 30
0.0
 40
11.99999999999994
100
AcDbArc
 50
5.54940006378611
 51
19.9784489794657
  0
LINE
  5
A8
330
1F
100
AcDbEntity
  8
AM_9
100
AcDbLine
 10
10.85
 20
19.0
 30
0.0
 11
6.0
 21
19.0
 31
0.0
  0
ARC
  5
A9
330
1F
100
AcDbEntity
  8
AM_9
100
AcDbCircle
 10
10.85000000000001
 20
15.85000000000001
 30
0.0
 40
3.149999999999991
100
AcDbArc
 50
359.9999999999997
 51
90.00000000000011
  0
LINE
  5
AA
330
1F
100
AcDbEntity
  8
AM_9
100
AcDbLine
 10
4.500000000000001
 20
17.5
 30
0.0
 11
4.500000000000001
 21
12.64911064067351
 31
0.0
  0
ARC
  5
AB
330
1F
100
AcDbEntity
  8
AM_9
100
AcDbCircle
 10
5.999999999999995
 20
12.6491106406735
 30
0.0
 40
1.499999999999994
100
AcDbArc
 50
179.9999999999999
 51
244.6230724444835
  0
ARC
  5
AC
330
1F
100
AcDbEntity
  8
AM_9
100
AcDbCircle
 10
0.0
 20
-0.0000000000000009
 30
0.0
 40
12.5
100
AcDbArc
 50
29.41420222189179
 51
64.6230657584914
  0
ARC
  5
AD
330
1F
100
AcDbEntity
  8
AM_9
100
AcDbCircle
 10
11.28064271218622
 20
6.359999999999998
 30
0.0
 40
0.4500000000000048
100
AcDbArc
 50
209.414202221891
 51
269.9999999999989
  0
LINE
  5
AE
330
1F
100
AcDbEntity
  8
AM_9
100
AcDbLine
 10
11.28064271218622
 20
5.909999999999993
 30
0.0
 11
13.55
 21
5.909999999999993
 31
0.0
  0
ARC
  5
AF
330
1F
100
AcDbEntity
  8
AM_9
100
AcDbCircle
 10
13.55
 20
6.359999999999993
 30
0.0
 40
0.4500000000000002
100
AcDbArc
 50
270.0
 51
0.0000000000006785
  0
LINE
  5
B0
330
1F
100
AcDbEntity
  8
AM_9
100
AcDbLine
 10
14.0
 20
6.359999999999999
 30
0.0
 11
14.0
 21
15.84999999999999
 31
0.0
  0
ARC
  5
B1
330
1F
100
AcDbEntity
  8
AM_9
100
AcDbCircle
 10
-0.0000000000000977
 20
0.0000000000000311
 30
0.0
 40
11.9999999999999
100
AcDbArc
 50
160.0215510205343
 51
174.4505999362141
  0
ARC
  5
B2
330
1F
100
AcDbEntity
  8
AM_9
100
AcDbCircle
 10
0.0000000000000746
 20
0.000000000000002
 30
0.0
 40
12.00000000000007
100
AcDbArc
 50
185.549400063786
 51
199.9784489794656
  0
ARC
  5
B3
330
1F
100
AcDbEntity
  8
AM_9
100
AcDbCircle
 10
-11.28064271218621
 20
6.359999999999994
 30
0.0
 40
0.449999999999994
100
AcDbArc
 50
269.9999999999993
 51
330.5858016894406
  0
ARC
  5
B4
330
1F
100
AcDbEntity
  8
AM_9
100
AcDbCircle
 10
-5.999999999999991
 20
12.64911064067351
 30
0.0
 40
1.49999999999999
100
AcDbArc
 50
295.3769335251523
 51
0.0000000000002714
  0
LWPOLYLINE
  5
B5
330
1F
100
AcDbEntity
  8
AM_9
100
AcDbPolyline
 90
        9
 70
     0
 43
0.0
 10
1.461105583260363
 20
12.75405963181308
 10
1.336515953123406
 20
12.93686121337799
 10
1.201754629572783
 20
13.10271634100055
 10
1.057847227651827
 20
13.25036275701349
 10
0.9058889695828201
 20
13.3786767830396
 10
0.7470363494645729
 20
13.4866818718627
 10
0.5824983316540197
 20
13.57355603954159
 10
0.4135271498174704
 20
13.63863812120418
 10
0.2921972029672584
 20
13.67120084462728
  0
ELLIPSE
  5
B6
330
1F
100
AcDbEntity
  8
AM_9
100
AcDbEllipse
 10
0.0000000000000007
 20
15.58232379316638
 30
0.0
 11
2.0
 21
-5.818929237859693E-15
 31
0.0
210
0.0
220
0.0
230
1.0
 40
0.9659258262890678
 41
3.53135338638727
 42
4.565765581404929
  0
LWPOLYLINE
  5
B7
330
1F
100
AcDbEntity
  8
AM_9
100
AcDbPolyline
 90
        9
 70
     0
 43
0.0
 10
-0.2921972029672574
 20
13.67120084462728
 10
-0.463526433441334
 20
13.62182051416985
 10
-0.6313279478720091
 20
13.5502807759013
 10
-0.7943246754131408
 20
13.45712609042674
 10
-0.951276112548026
 20
13.34306542115096
 10
-1.100987764070199
 20
13.20896683863887
 10
-1.24232023391321
 20
13.05585091407433
 10
-1.374197896642675
 20
12.88488295209719
 10
-1.461105583260362
 20
12.75405963181308
  0
ELLIPSE
  5
B8
330
1F
100
AcDbEntity
  8
AM_9
100
AcDbEllipse
 10
-0.0000000000000002
 20
15.58232379316638
 30
0.0
 11
2.0
 21
3.552713678800501E-15
 31
0.0
210
0.0
220
0.0
230
1.0
 40
0.9659258262890678
 41
4.85901237936445
 42
5.893424574382111
  0
LWPOLYLINE
  5
B9
330
1F
100
AcDbEntity
  8
AM_9
100
AcDbPolyline
 90
       20
 70
     0
 43
0.0
 10
1.461105583260363
 20
12.75405963181308
 10
1.336515953123407
 20
12.62760396528541
 10
1.201754629572784
 20
12.51287125602219
 10
1.057847227651828
 20
12.41073468921843
 10
0.9058889695828214
 20
12.32197158581925
 10
0.7470363494645742
 20
12.24725748663813
 10
0.5824983316540211
 20
12.18716101108346
 10
0.4135271498174717
 20
12.14213952962145
 10
0.2414087766762916
 20
12.11253568291074
 10
0.067453136978
 20
12.09857477410009
 10
-0.1070158618220117
 20
12.10036305413538
 10
-0.2806704052956139
 20
12.11788691312574
 10
-0.4521888775114922
 20
12.15101298392306
 10
-0.6202659193303987
 20
12.19948915712651
 10
-0.7836223629763989
 20
12.26294649978729
 10
-0.941014967276029
 20
12.34090206321117
 10
-1.091245879474316
 20
12.43276255848963
 10
-1.233171751617526
 20
12.53782887178672
 10
-1.365712442121465
 20
12.65530138501748
 10
-1.461105583260363
 20
12.75405963181308
  0
LWPOLYLINE
  5
BA
330
1F
100
AcDbEntity
  8
AM_9
100
AcDbPolyline
 90
        6
 70
     0
 43
0.0
 10
-1.85
 20
13.38120740854273
 10
-1.909192821779304
 20
13.55112718779157
 10
-1.953855533382723
 20
13.72574135494303
 10
-1.983648224606873
 20
13.90372099075017
 10
-1.998344155082219
 20
14.08371156271745
 10
-1.999999999999998
 20
14.16794919243112
  0
LINE
  5
BB
330
1F
100
AcDbEntity
  8
AM_9
100
AcDbLine
 10
-1.85
 20
17.00000000000001
 30
0.0
 11
-1.850000000000001
 21
14.9546909763195
 31
0.0
  0
ELLIPSE
  5
BC
330
1F
100
AcDbEntity
  8
AM_9
100
AcDbEllipse
 10
0.0000000000000273
 20
15.58232379316636
 30
0.0
 11
1.999999999999971
 21
2.096101070492296E-13
 31
0.0
210
0.0
220
0.0
230
1.0
 40
0.9659258262890675
 41
5.978160261246357
 42
9.42477796076926
  0
LINE
  5
BD
330
1F
100
AcDbEntity
  8
AM_9
100
AcDbLine
 10
1.85
 20
17.0
 30
0.0
 11
1.850000000000001
 21
14.9546909763195
 31
0.0
  0
LWPOLYLINE
  5
BE
330
1F
100
AcDbEntity
  8
AM_9
100
AcDbPolyline
 90
        6
 70
     0
 43
0.0
 10
1.850000000000001
 20
14.9546909763195
 10
1.909192821779305
 20
14.78477119707066
 10
1.953855533382724
 20
14.6101570299192
 10
1.983648224606874
 20
14.43217739411207
 10
1.998344155082219
 20
14.25218682214479
 10
1.999999999999998
 20
14.16794919243112
  0
ELLIPSE
  5
BF
330
1F
100
AcDbEntity
  8
AM_9
100
AcDbEllipse
 10
0.0000000000000155
 20
12.08826668428233
 30
0.0
 11
1.999999999999983
 21
3.463895836830488E-13
 31
0.0
210
0.0
220
0.0
230
1.0
 40
0.9659258262890669
 41
4.712388980384516
 42
9.424777960769188
  0
LWPOLYLINE
  5
C0
330
1F
100
AcDbEntity
  8
AM_9
100
AcDbPolyline
 90
       17
 70
     0
 43
0.0
 10
1.272513418855493
 20
17.0
 10
1.133193747122248
 20
16.84280680249152
 10
0.9852497867323107
 20
16.7043839231248
 10
0.8298074805552533
 20
16.58578484359386
 10
0.6680498383997148
 20
16.487912174506
 10
0.5012079335944329
 20
16.41151078597013
 10
0.330551533776873
 20
16.3571621386854
 10
0.1573794371947978
 20
16.32527985867429
 10
-0.0169904119326322
 20
16.3161065893387
 10
-0.1912309537661636
 20
16.32971214479726
 10
-0.3640161125731275
 20
16.36599297855768
 10
-0.5340308889644718
 20
16.42467297156807
 10
-0.6999813678341293
 20
16.50530553364966
 10
-0.8606045658342633
 20
16.60727700231775
 10
-1.014678043441154
 20
16.72981131312372
 10
-1.161029208458104
 20
16.8719759059741
 10
-1.272513418855493
 20
17.0
  0
LINE
  5
C1
330
1F
100
AcDbEntity
  8
AM_9
100
AcDbLine
 10
1.999999999999998
 20
12.08826668428235
 30
0.0
 11
1.999999999999998
 21
14.16794919243112
 31
0.0
  0
LINE
  5
C2
330
1F
100
AcDbEntity
  8
AM_9
100
AcDbLine
 10
1.999999999999998
 20
15.56195219663866
 30
0.0
 11
1.999999999999998
 21
15.58232379316638
 31
0.0
  0
LINE
  5
C3
330
1F
100
AcDbEntity
  8
AM_9
100
AcDbLine
 10
-1.999999999999998
 20
15.58232379316638
 30
0.0
 11
-1.999999999999998
 21
15.56195219663866
 31
0.0
  0
LINE
  5
C4
330
1F
100
AcDbEntity
  8
AM_9
100
AcDbLine
 10
-1.999999999999998
 20
14.16794919243112
 30
0.0
 11
-1.999999999999998
 21
12.08826668428235
 31
0.0
  0
LWPOLYLINE
  5
C5
330
1F
100
AcDbEntity
  8
AM_9
100
AcDbPolyline
 90
        6
 70
     0
 43
0.0
 10
-1.999999999999998
 20
14.16794919243112
 10
-1.992389396183489
 20
14.34840972133632
 10
-1.969615506024414
 20
14.5274968366515
 10
-1.931851652578135
 20
14.70384757729336
 10
-1.879385241571815
 20
14.87611980764213
 10
-1.850000000000001
 20
14.9546909763195
  0
LWPOLYLINE
  5
C6
330
1F
100
AcDbEntity
  8
AM_9
100
AcDbPolyline
 90
        6
 70
     0
 43
0.0
 10
-1.999999999999998
 20
15.56195219663866
 10
-1.992389396183489
 20
15.72441207193474
 10
-1.969615506024414
 20
15.88563552948387
 10
-1.931851652578135
 20
16.04439556142471
 10
-1.879385241571815
 20
16.19948390805225
 10
-1.85
 20
16.2702177263705
  0
ELLIPSE
  5
C7
330
1F
100
AcDbEntity
  8
AM_9
100
AcDbEllipse
 10
0.0000000000000067
 20
15.58232379316637
 30
0.0
 11
2.000000000000004
 21
-1.443747627110796E-13
 31
0.0
210
0.0
220
0.0
230
1.0
 40
0.9659258262890673
 41
3.141592653589861
 42
3.446617699522987
  0
LWPOLYLINE
  5
C8
330
1F
100
AcDbEntity
  8
AM_9
100
AcDbPolyline
 90
        5
 70
     0
 43
0.0
 10
1.999999999999998
 20
15.56195219663866
 10
1.992389396183489
 20
15.39949232134257
 10
1.969615506024414
 20
15.23826886379344
 10
1.931851652578135
 20
15.07950883185261
 10
1.907678862291538
 20
15.00215577465156
  0
LWPOLYLINE
  5
C9
330
1F
100
AcDbEntity
  8
AM_9
100
AcDbPolyline
 90
        6
 70
     0
 43
0.0
 10
1.999999999999998
 20
14.16794919243112
 10
1.992389396183489
 20
13.98748866352592
 10
1.969615506024414
 20
13.80840154821074
 10
1.931851652578135
 20
13.63205080756887
 10
1.879385241571815
 20
13.4597785772201
 10
1.85
 20
13.38120740854273
  0
ELLIPSE
  5
CA
330
1F
100
AcDbEntity
  8
AM_9
100
AcDbEllipse
 10
0.0000000000000008
 20
12.08826668428235
 30
0.0
 11
1.999999999999999
 21
-7.595286077259938E-15
 31
0.0
210
0.0
220
0.0
230
1.0
 40
0.9659258262890684
 41
3.141592653589795
 42
4.712388980384691
  0
LINE
  5
CB
330
1F
100
AcDbEntity
  8
AM_9
100
AcDbLine
 10
0.2921972029672613
 20
13.67120084462728
 30
0.0
 11
1.85
 21
13.67120084462728
 31
0.0
  0
LINE
  5
CC
330
1F
100
AcDbEntity
  8
AM_9
100
AcDbLine
 10
1.850000000000001
 20
14.84828371568917
 30
0.0
 11
1.850000000000001
 21
12.75405963181308
 31
0.0
  0
LINE
  5
CD
330
1F
100
AcDbEntity
  8
AM_9
100
AcDbLine
 10
-1.850000000000001
 20
14.84828371568917
 30
0.0
 11
-1.850000000000001
 21
12.75405963181308
 31
0.0
  0
LINE
  5
CE
330
1F
100
AcDbEntity
  8
AM_9
100
AcDbLine
 10
-1.85
 20
13.67120084462728
 30
0.0
 11
-0.2921972029672613
 21
13.67120084462728
 31
0.0
  0
LWPOLYLINE
  5
CF
330
1F
100
AcDbEntity
  8
AM_9
100
AcDbPolyline
 90
        9
 70
     0
 43
0.0
 10
-1.461105583260367
 20
-12.75405963181308
 10
-1.336515953123411
 20
-12.93686121337799
 10
-1.201754629572788
 20
-13.10271634100055
 10
-1.057847227651832
 20
-13.25036275701349
 10
-0.9058889695828248
 20
-13.3786767830396
 10
-0.7470363494645776
 20
-13.4866818718627
 10
-0.5824983316540243
 20
-13.57355603954159
 10
-0.4135271498174749
 20
-13.63863812120418
 10
-0.292197202967277
 20
-13.67120084462728
  0
ELLIPSE
  5
D0
330
1F
100
AcDbEntity
  8
AM_9
100
AcDbEllipse
 10
-0.0000000000000034
 20
-15.58232379316638
 30
0.0
 11
1.999999999999996
 21
-5.818929237859683E-15
 31
0.0
210
0.0
220
0.0
230
1.0
 40
0.9659258262890685
 41
1.717419725774666
 42
2.751831920792322
  0
ELLIPSE
  5
D1
330
1F
100
AcDbEntity
  8
AM_9
100
AcDbEllipse
 10
0.000000000000004
 20
-15.58232379316638
 30
0.0
 11
1.999999999999995
 21
5.329070518200751E-15
 31
0.0
210
0.0
220
0.0
230
1.0
 40
0.9659258262890685
 41
0.3897607327974715
 42
1.424172927815127
  0
LWPOLYLINE
  5
D2
330
1F
100
AcDbEntity
  8
AM_9
100
AcDbPolyline
 90
        9
 70
     0
 43
0.0
 10
0.2921972029672764
 20
-13.67120084462729
 10
0.4635264334413526
 20
-13.62182051416985
 10
0.6313279478720272
 20
-13.55028077590129
 10
0.7943246754131583
 20
-13.45712609042673
 10
0.9512761125480428
 20
-13.34306542115095
 10
1.100987764070215
 20
-13.20896683863886
 10
1.242320233913225
 20
-13.05585091407432
 10
1.374197896642689
 20
-12.88488295209718
 10
1.461105583260367
 20
-12.75405963181308
  0
LWPOLYLINE
  5
D3
330
1F
100
AcDbEntity
  8
AM_9
100
AcDbPolyline
 90
       20
 70
     0
 43
0.0
 10
-1.461105583260368
 20
-12.75405963181308
 10
-1.336515953123411
 20
-12.62760396528541
 10
-1.201754629572789
 20
-12.51287125602219
 10
-1.057847227651832
 20
-12.41073468921843
 10
-0.9058889695828256
 20
-12.32197158581925
 10
-0.7470363494645784
 20
-12.24725748663813
 10
-0.5824983316540253
 20
-12.18716101108346
 10
-0.4135271498174759
 20
-12.14213952962145
 10
-0.2414087766762956
 20
-12.11253568291074
 10
-0.0674531369780039
 20
-12.09857477410009
 10
0.1070158618220081
 20
-12.10036305413537
 10
0.2806704052956105
 20
-12.11788691312573
 10
0.452188877511489
 20
-12.15101298392305
 10
0.6202659193303959
 20
-12.1994891571265
 10
0.7836223629763961
 20
-12.26294649978729
 10
0.9410149672760266
 20
-12.34090206321117
 10
1.091245879474314
 20
-12.43276255848963
 10
1.233171751617525
 20
-12.53782887178672
 10
1.365712442121464
 20
-12.65530138501748
 10
1.461105583260367
 20
-12.75405963181308
  0
LWPOLYLINE
  5
D4
330
1F
100
AcDbEntity
  8
AM_9
100
AcDbPolyline
 90
        6
 70
     0
 43
0.0
 10
1.85
 20
-13.38120740854272
 10
1.909192821779305
 20
-13.55112718779156
 10
1.953855533382725
 20
-13.72574135494302
 10
1.983648224606875
 20
-13.90372099075016
 10
1.998344155082221
 20
-14.08371156271744
 10
2.0
 20
-14.16794919243112
  0
LINE
  5
D5
330
1F
100
AcDbEntity
  8
AM_9
100
AcDbLine
 10
1.85
 20
-17.0
 30
0.0
 11
1.850000000000001
 21
-14.95469097631952
 31
0.0
  0
ELLIPSE
  5
D6
330
1F
100
AcDbEntity
  8
AM_9
100
AcDbEllipse
 10
-0.0000000000000044
 20
-15.58232379316637
 30
0.0
 11
2.000000000000005
 21
-2.864833098631000E-13
 31
0.0
210
0.0
220
0.0
230
1.0
 40
0.9659258262890671
 41
3.14159265358995
 42
6.58821035311288
  0
LINE
  5
D7
330
1F
100
AcDbEntity
  8
AM_9
100
AcDbLine
 10
-1.85
 20
-17.0
 30
0.0
 11
-1.85
 21
-14.95469097631952
 31
0.0
  0
LWPOLYLINE
  5
D8
330
1F
100
AcDbEntity
  8
AM_9
100
AcDbPolyline
 90
        6
 70
     0
 43
0.0
 10
-1.85
 20
-14.95469097631952
 10
-1.909192821779305
 20
-14.78477119707067
 10
-1.953855533382725
 20
-14.61015702991921
 10
-1.983648224606875
 20
-14.43217739411208
 10
-1.998344155082221
 20
-14.2521868221448
 10
-2.0
 20
-14.16794919243112
  0
LWPOLYLINE
  5
D9
330
1F
100
AcDbEntity
  8
AM_9
100
AcDbPolyline
 90
       17
 70
     0
 43
0.0
 10
-1.272513418855499
 20
-17.0
 10
-1.133193747122254
 20
-16.84280680249152
 10
-0.9852497867323166
 20
-16.7043839231248
 10
-0.8298074805552593
 20
-16.58578484359386
 10
-0.6680498383997207
 20
-16.487912174506
 10
-0.501207933594439
 20
-16.41151078597012
 10
-0.3305515337768788
 20
-16.3571621386854
 10
-0.1573794371948035
 20
-16.32527985867428
 10
0.0169904119326266
 20
-16.31610658933869
 10
0.1912309537661582
 20
-16.32971214479726
 10
0.3640161125731226
 20
-16.36599297855767
 10
0.5340308889644669
 20
-16.42467297156806
 10
0.6999813678341249
 20
-16.50530553364965
 10
0.8606045658342591
 20
-16.60727700231775
 10
1.01467804344115
 20
-16.72981131312372
 10
1.1610292084581
 20
-16.87197590597409
 10
1.272513418855498
 20
-17.0
  0
LINE
  5
DA
330
1F
100
AcDbEntity
  8
AM_9
100
AcDbLine
 10
2.0
 20
-15.58232379316638
 30
0.0
 11
2.0
 21
-15.56195219663866
 31
0.0
  0
LINE
  5
DB
330
1F
100
AcDbEntity
  8
AM_9
100
AcDbLine
 10
2.0
 20
-14.16794919243112
 30
0.0
 11
2.0
 21
-12.08826668428235
 31
0.0
  0
LINE
  5
DC
330
1F
100
AcDbEntity
  8
AM_9
100
AcDbLine
 10
-2.0
 20
-12.08826668428235
 30
0.0
 11
-2.0
 21
-14.16794919243112
 31
0.0
  0
LINE
  5
DD
330
1F
100
AcDbEntity
  8
AM_9
100
AcDbLine
 10
-2.0
 20
-15.56195219663866
 30
0.0
 11
-2.0
 21
-15.58232379316638
 31
0.0
  0
ELLIPSE
  5
DE
330
1F
100
AcDbEntity
  8
AM_9
100
AcDbEllipse
 10
0.0000000000000014
 20
-12.08826668428236
 30
0.0
 11
2.000000000000001
 21
-2.266215559059193E-15
 31
0.0
210
0.0
220
0.0
230
1.0
 40
0.9659258262890688
 41
3.141592653589793
 42
9.169261191109982
  0
ELLIPSE
  5
DF
330
1F
100
AcDbEntity
  8
AM_9
100
AcDbEllipse
 10
-0.0000000000000622
 20
-12.08826668428234
 30
0.0
 11
1.999999999999937
 21
1.296740492762183E-13
 31
0.0
210
0.0
220
0.0
230
1.0
 40
0.9659258262890682
 41
2.886075883930331
 42
3.141592653589734
  0
LWPOLYLINE
  5
E0
330
1F
100
AcDbEntity
  8
AM_9
100
AcDbPolyline
 90
        6
 70
     0
 43
0.0
 10
2.0
 20
-14.16794919243112
 10
1.992389396183491
 20
-14.34840972133632
 10
1.969615506024416
 20
-14.5274968366515
 10
1.931851652578137
 20
-14.70384757729336
 10
1.879385241571817
 20
-14.87611980764213
 10
1.85
 20
-14.95469097631952
  0
LWPOLYLINE
  5
E1
330
1F
100
AcDbEntity
  8
AM_9
100
AcDbPolyline
 90
        6
 70
     0
 43
0.0
 10
2.0
 20
-15.56195219663866
 10
1.992389396183491
 20
-15.72441207193474
 10
1.969615506024416
 20
-15.88563552948387
 10
1.931851652578137
 20
-16.04439556142471
 10
1.879385241571817
 20
-16.19948390805225
 10
1.850000000000001
 20
-16.2702177263705
  0
ELLIPSE
  5
E2
330
1F
100
AcDbEntity
  8
AM_9
100
AcDbEllipse
 10
-0.0000000000000058
 20
-15.58232379316636
 30
0.0
 11
1.999999999999994
 21
3.517186542012495E-13
 31
0.0
210
0.0
220
0.0
230
1.0
 40
0.9659258262890661
 41
2.836567607656467
 42
3.141592653589621
  0
LWPOLYLINE
  5
E3
330
1F
100
AcDbEntity
  8
AM_9
100
AcDbPolyline
 90
        5
 70
     0
 43
0.0
 10
-2.0
 20
-15.56195219663866
 10
-1.992389396183491
 20
-15.39949232134257
 10
-1.969615506024416
 20
-15.23826886379344
 10
-1.931851652578137
 20
-15.07950883185261
 10
-1.907678862291523
 20
-15.0021557746515
  0
LWPOLYLINE
  5
E4
330
1F
100
AcDbEntity
  8
AM_9
100
AcDbPolyline
 90
        6
 70
     0
 43
0.0
 10
-2.0
 20
-14.16794919243112
 10
-1.992389396183491
 20
-13.98748866352592
 10
-1.969615506024416
 20
-13.80840154821074
 10
-1.931851652578137
 20
-13.63205080756887
 10
-1.879385241571817
 20
-13.4597785772201
 10
-1.85
 20
-13.38120740854272
  0
LINE
  5
E5
330
1F
100
AcDbEntity
  8
AM_9
100
AcDbLine
 10
1.85
 20
-13.67120084462729
 30
0.0
 11
0.2921972029672698
 21
-13.67120084462729
 31
0.0
  0
LINE
  5
E6
330
1F
100
AcDbEntity
  8
AM_9
100
AcDbLine
 10
1.850000000000001
 20
-12.75405963181308
 30
0.0
 11
1.85
 21
-14.84828371568917
 31
0.0
  0
LINE
  5
E7
330
1F
100
AcDbEntity
  8
AM_9
100
AcDbLine
 10
-0.2921972029672698
 20
-13.67120084462729
 30
0.0
 11
-1.85
 21
-13.67120084462729
 31
0.0
  0
LINE
  5
E8
330
1F
100
AcDbEntity
  8
AM_9
100
AcDbLine
 10
-1.85
 20
-14.84828371568917
 30
0.0
 11
-1.850000000000001
 21
-12.75405963181308
 31
0.0
  0
LINE
  5
E9
330
1F
100
AcDbEntity
  8
AM_9
100
AcDbLine
 10
1.108749699853688
 20
12.88971583053363
 30
0.0
 11
-1.108749699853688
 21
12.88971583053363
 31
0.0
  0
LINE
  5
EA
330
1F
100
AcDbEntity
  8
AM_0
100
AcDbLine
 10
-3.100000000000001
 20
13.63333333333333
 30
0.0
 11
-3.100000000000002
 21
19.75
 31
0.0
  0
LINE
  5
EB
330
1F
100
AcDbEntity
  8
AM_0
100
AcDbLine
 10
3.100000000000001
 20
13.63333333333333
 30
0.0
 11
3.100000000000002
 21
19.75
 31
0.0
  0
LINE
  5
EC
330
1F
100
AcDbEntity
  8
AM_9
100
AcDbLine
 10
-1.108749699853773
 20
-12.88971583053366
 30
0.0
 11
1.108749699853773
 21
-12.88971583053366
 31
0.0
  0
LINE
  5
ED
330
1F
100
AcDbEntity
  8
AM_0
100
AcDbLine
 10
3.100000000000002
 20
-19.75
 30
0.0
 11
3.100000000000001
 21
-13.63333333333333
 31
0.0
  0
LINE
  5
EE
330
1F
100
AcDbEntity
  8
AM_0
100
AcDbLine
 10
-3.100000000000002
 20
-19.75
 30
0.0
 11
-3.100000000000001
 21
-13.63333333333333
 31
0.0
  0
LINE
  5
EF
330
1F
100
AcDbEntity
  8
AM_9
100
AcDbLine
 10
-1.272513418855493
 20
17.0
 30
0.0
 11
-1.85
 21
17.00000000000001
 31
0.0
  0
LWPOLYLINE
  5
F0
330
1F
100
AcDbEntity
  8
AM_9
100
AcDbPolyline
 90
       17
 70
     0
 43
0.0
 10
-1.272513418855493
 20
17.00000000000001
 10
-1.133193747122248
 20
17.09789397961964
 10
-0.9852497867323107
 20
17.18409851484379
 10
-0.8298074805552533
 20
17.25795753710767
 10
-0.6680498383997148
 20
17.31890893465456
 10
-0.5012079335944329
 20
17.36648883054566
 10
-0.330551533776873
 20
17.40033511304372
 10
-0.1573794371947978
 20
17.42019019150198
 10
0.0169904119326322
 20
17.42590295678456
 10
0.1912309537661636
 20
17.41742993129818
 10
0.3640161125731275
 20
17.39483559988295
 10
0.5340308889644718
 20
17.35829191904378
 10
0.6999813678341293
 20
17.30807700825753
 10
0.8606045658342633
 20
17.24457303331586
 10
1.014678043441154
 20
17.16826329781285
 10
1.161029208458104
 20
17.07972856491274
 10
1.272513418855493
 20
17.00000000000001
  0
LINE
  5
F1
330
1F
100
AcDbEntity
  8
AM_9
100
AcDbLine
 10
1.85
 20
17.0
 30
0.0
 11
1.272513418855493
 21
17.0
 31
0.0
  0
LWPOLYLINE
  5
F2
330
1F
100
AcDbEntity
  8
AM_9
100
AcDbPolyline
 90
        6
 70
     0
 43
0.0
 10
1.849999999999999
 20
16.2702177263705
 10
1.909192821779304
 20
16.11724717754978
 10
1.953855533382723
 20
15.96005049862805
 10
1.983648224606873
 20
15.79982405124986
 10
1.998344155082219
 20
15.63778725542711
 10
1.999999999999998
 20
15.56195219663866
  0
LINE
  5
F3
330
1F
100
AcDbEntity
  8
AM_9
100
AcDbLine
 10
1.907678862291539
 20
15.00215577465156
 30
0.0
 11
2.939258178798513
 21
15.00215577465157
 31
0.0
  0
LINE
  5
F4
330
1F
100
AcDbEntity
  8
AM_0
100
AcDbLine
 10
3.100000000000001
 20
13.63333333333333
 30
0.0
 11
2.172082293439423
 21
13.63333333333333
 31
0.0
  0
LINE
  5
F5
330
1F
100
AcDbEntity
  8
AM_0
100
AcDbLine
 10
-2.172082293439425
 20
13.63333333333333
 30
0.0
 11
-3.100000000000001
 21
13.63333333333333
 31
0.0
  0
LINE
  5
F6
330
1F
100
AcDbEntity
  8
AM_9
100
AcDbLine
 10
-2.939258178798513
 20
15.00215577465157
 30
0.0
 11
-1.907678862291539
 21
15.00215577465156
 31
0.0
  0
LWPOLYLINE
  5
F7
330
1F
100
AcDbEntity
  8
AM_9
100
AcDbPolyline
 90
        5
 70
     0
 43
0.0
 10
-1.907678862291538
 20
15.00215577465156
 10
-1.952768282014057
 20
15.15924660408081
 10
-1.982995955996721
 20
15.31940226622971
 10
-1.998131833388556
 20
15.48140387980468
 10
-1.999999999999998
 20
15.56195219663866
  0
ARC
  5
F8
330
1F
100
AcDbEntity
  8
AM_0
100
AcDbCircle
 10
-10.90000000000001
 20
-15.75000000000001
 30
0.0
 40
3.999999999999991
100
AcDbArc
 50
193.1400239105506
 51
259.003771629182
  0
LINE
  5
F9
330
1F
100
AcDbEntity
  8
AM_9
100
AcDbLine
 10
-1.907678862291522
 20
-15.0021557746515
 30
0.0
 11
-2.939258178798501
 21
-15.0021557746515
 31
0.0
  0
LINE
  5
FA
330
1F
100
AcDbEntity
  8
AM_0
100
AcDbLine
 10
-3.100000000000001
 20
-13.63333333333333
 30
0.0
 11
-2.172082293439429
 21
-13.63333333333333
 31
0.0
  0
LINE
  5
FB
330
1F
100
AcDbEntity
  8
AM_0
100
AcDbLine
 10
2.172082293439429
 20
-13.63333333333333
 30
0.0
 11
3.100000000000001
 21
-13.63333333333333
 31
0.0
  0
LINE
  5
FC
330
1F
100
AcDbEntity
  8
AM_9
100
AcDbLine
 10
2.939258178798501
 20
-15.0021557746515
 30
0.0
 11
1.907678862291522
 21
-15.0021557746515
 31
0.0
  0
LWPOLYLINE
  5
FD
330
1F
100
AcDbEntity
  8
AM_9
100
AcDbPolyline
 90
        5
 70
     0
 43
0.0
 10
1.907678862291522
 20
-15.0021557746515
 10
1.952768282014046
 20
-15.15924660408076
 10
1.982995955996716
 20
-15.31940226622966
 10
1.998131833388555
 20
-15.48140387980463
 10
2.0
 20
-15.56195219663866
  0
LINE
  5
FE
330
1F
100
AcDbEntity
  8
AM_9
100
AcDbLine
 10
1.85
 20
-17.0
 30
0.0
 11
1.272513418855499
 21
-17.0
 31
0.0
  0
LWPOLYLINE
  5
FF
330
1F
100
AcDbEntity
  8
AM_9
100
AcDbPolyline
 90
       17
 70
     0
 43
0.0
 10
1.2725134188555
 20
-17.0
 10
1.133193747122256
 20
-17.09789397961964
 10
0.9852497867323181
 20
-17.18409851484379
 10
0.829807480555261
 20
-17.25795753710767
 10
0.6680498383997223
 20
-17.31890893465456
 10
0.5012079335944406
 20
-17.36648883054566
 10
0.3305515337768806
 20
-17.40033511304372
 10
0.1573794371948053
 20
-17.42019019150198
 10
-0.0169904119326249
 20
-17.42590295678456
 10
-0.1912309537661565
 20
-17.41742993129818
 10
-0.3640161125731207
 20
-17.39483559988296
 10
-0.5340308889644653
 20
-17.35829191904379
 10
-0.6999813678341232
 20
-17.30807700825753
 10
-0.8606045658342577
 20
-17.24457303331587
 10
-1.014678043441149
 20
-17.16826329781285
 10
-1.161029208458099
 20
-17.07972856491275
 10
-1.2725134188555
 20
-17.0
  0
LINE
  5
100
330
1F
100
AcDbEntity
  8
AM_9
100
AcDbLine
 10
-1.272513418855498
 20
-17.0
 30
0.0
 11
-1.85
 21
-17.0
 31
0.0
  0
LWPOLYLINE
  5
101
330
1F
100
AcDbEntity
  8
AM_9
100
AcDbPolyline
 90
        6
 70
     0
 43
0.0
 10
-1.850000000000001
 20
-16.2702177263705
 10
-1.909192821779305
 20
-16.11724717754978
 10
-1.953855533382725
 20
-15.96005049862805
 10
-1.983648224606875
 20
-15.79982405124986
 10
-1.998344155082221
 20
-15.63778725542711
 10
-2.0
 20
-15.56195219663866
  0
ARC
  5
102
330
1F
100
AcDbEntity
  8
AM_0
100
AcDbCircle
 10
10.9
 20
-15.75000000000001
 30
0.0
 40
3.999999999999995
100
AcDbArc
 50
280.996228370818
 51
346.8599760894495
  0
ARC
  5
103
330
1F
100
AcDbEntity
  8
AM_0
100
AcDbCircle
 10
10.90000000000001
 20
15.75
 30
0.0
 40
3.999999999999994
100
AcDbArc
 50
13.14002391055054
 51
79.00377162918198
  0
ARC
  5
104
330
1F
100
AcDbEntity
  8
AM_0
100
AcDbCircle
 10
-10.90000000000001
 20
15.75000000000002
 30
0.0
 40
3.99999999999998
100
AcDbArc
 50
100.9962283708179
 51
166.8599760894498
  0
ARC
  5
105
330
1F
100
AcDbEntity
  8
AM_9
100
AcDbCircle
 10
-0.0000000000000018
 20
-0.0000000000000036
 30
0.0
 40
10.87
100
AcDbArc
 50
227.507543858189
 51
316.3482397099507
  0
ARC
  5
106
330
1F
100
AcDbEntity
  8
AM_9
100
AcDbCircle
 10
0.0000000000000009
 20
-0.0000000000000036
 30
0.0
 40
10.87
100
AcDbArc
 50
43.65176029004935
 51
132.492456141811
  0
LINE
  5
107
330
1F
100
AcDbEntity
  8
AM_0
100
AcDbLine
 10
-0.5
 20
-13.11330523437889
 30
0.0
 11
-0.5
 21
-19.08661853236396
 31
0.0
  0
LINE
  5
108
330
1F
100
AcDbEntity
  8
AM_0
100
AcDbLine
 10
0.5
 20
-19.08661853236396
 30
0.0
 11
0.5
 21
-13.11330523437889
 31
0.0
  0
LWPOLYLINE
  5
109
330
1F
100
AcDbEntity
  8
AM_0
100
AcDbPolyline
 90
        6
 70
     0
 43
0.0
 10
1.108749699853766
 20
-12.88971583053366
 10
1.347485301040661
 20
-13.00074043845407
 10
1.575965725452767
 20
-13.13288374065144
 10
1.792452099100054
 20
-13.28514004680574
 10
1.995296829961021
 20
-13.45635059449227
 10
2.172082293439429
 20
-13.63333333333333
  0
ELLIPSE
  5
10A
330
1F
100
AcDbEntity
  8
AM_0
100
AcDbEllipse
 10
0.0
 20
-15.58232379316638
 30
0.0
 11
3.000000000000002
 21
0.0
 31
0.0
210
0.0
220
0.0
230
1.0
 40
0.9659258262890675
 41
1.192235869351938
 42
1.949356784237856
  0
LWPOLYLINE
  5
10B
330
1F
100
AcDbEntity
  8
AM_0
100
AcDbPolyline
 90
        6
 70
     0
 43
0.0
 10
-2.17208229343943
 20
-13.63333333333333
 10
-1.983464306330106
 20
-13.44549791377194
 10
-1.779750958201116
 20
-13.27539631554842
 10
-1.562492630637206
 20
-13.12432311453543
 10
-1.333342790695301
 20
-12.99342806901316
 10
-1.108749699853766
 20
-12.88971583053366
  0
LWPOLYLINE
  5
10C
330
1F
100
AcDbEntity
  8
AM_0
100
AcDbPolyline
 90
        8
 70
     0
 43
0.0
 10
-2.9392581787985
 20
-15.0021557746515
 10
-2.875724700304327
 20
-14.76553021044902
 10
-2.790305220430789
 20
-14.53496589845419
 10
-2.683649832997416
 20
-14.31221757229981
 10
-2.55657024990286
 20
-14.09898048124706
 10
-2.410033623507219
 20
-13.89687748831491
 10
-2.245155186018599
 20
-13.7074467193127
 10
-2.17208229343943
 20
-13.63333333333333
  0
ELLIPSE
  5
10D
330
1F
100
AcDbEntity
  8
AM_0
100
AcDbEllipse
 10
0.0000000000000515
 20
-15.58232379316637
 30
0.0
 11
2.999999999999949
 21
-1.659359741437089E-13
 31
0.0
210
0.0
220
0.0
230
1.0
 40
0.9659258262890674
 41
0.0000000000000505
 42
0.2015736610189083
  0
LWPOLYLINE
  5
10E
330
1F
100
AcDbEntity
  8
AM_0
100
AcDbPolyline
 90
        8
 70
     0
 43
0.0
 10
2.172082293439429
 20
-13.63333333333333
 10
2.344169422756532
 20
-13.81711041963667
 10
2.49841600731826
 20
-14.01416680542726
 10
2.633648137479466
 20
-14.22300277262334
 10
2.748836615074227
 20
-14.44202895341595
 10
2.843104786235346
 20
-14.66957842631762
 10
2.915735213259607
 20
-14.90391940244145
 10
2.9392581787985
 20
-15.0021557746515
  0
ELLIPSE
  5
10F
330
1F
100
AcDbEntity
  8
AM_0
100
AcDbEllipse
 10
0.0000000000000001
 20
-15.97055236082015
 30
0.0
 11
-2.999999999999996
 21
3.673940397442054E-16
 31
0.0
210
0.0
220
0.0
230
1.0
 40
0.9659258262890673
 41
4.544940901164999
 42
4.879837059604379
  0
ELLIPSE
  5
110
330
1F
100
AcDbEntity
  8
AM_0
100
AcDbEllipse
 10
-0.0000000000000111
 20
-16.22937140592269
 30
0.0
 11
3.000000000000009
 21
-8.728393856789566E-15
 31
0.0
210
0.0
220
0.0
230
1.0
 40
0.9659258262890678
 41
4.879837059604386
 42
7.686533554754793
  0
ELLIPSE
  5
111
330
1F
100
AcDbEntity
  8
AM_0
100
AcDbEllipse
 10
-0.0000000000000001
 20
-15.97055236082029
 30
0.0
 11
-2.999999999999874
 21
3.673940397441906E-16
 31
0.0
210
0.0
220
0.0
230
1.0
 40
0.9659258262890699
 41
1.403348247575201
 42
1.738244406014593
  0
ELLIPSE
  5
112
330
1F
100
AcDbEntity
  8
AM_0
100
AcDbEllipse
 10
-0.0000000000000018
 20
-16.22937140592268
 30
0.0
 11
2.999999999999997
 21
7.105427357601001E-15
 31
0.0
210
0.0
220
0.0
230
1.0
 40
0.9659258262890693
 41
1.738244406014583
 42
4.544940901164999
  0
LINE
  5
113
330
1F
100
AcDbEntity
  8
AM_0
100
AcDbLine
 10
3.0
 20
-16.22937140592268
 30
0.0
 11
3.0
 21
-15.58232379316638
 31
0.0
  0
LINE
  5
114
330
1F
100
AcDbEntity
  8
AM_0
100
AcDbLine
 10
-3.0
 20
-15.58232379316638
 30
0.0
 11
-3.0
 21
-16.22937140592269
 31
0.0
  0
ELLIPSE
  5
115
330
1F
100
AcDbEntity
  8
AM_9
100
AcDbEllipse
 10
-0.0000000000000007
 20
-15.58232379316638
 30
0.0
 11
3.000000000000004
 21
0.0
 31
0.0
210
0.0
220
0.0
230
1.0
 40
0.9659258262890682
 41
3.141592653589794
 42
6.283185307179585
  0
ELLIPSE
  5
116
330
1F
100
AcDbEntity
  8
AM_0
100
AcDbEllipse
 10
0.0
 20
-15.58232379316636
 30
0.0
 11
3.000000000000001
 21
3.446132268436486E-13
 31
0.0
210
0.0
220
0.0
230
1.0
 40
0.9659258262890673
 41
2.940018992570828
 42
3.141592653589681
  0
LINE
  5
117
330
1F
100
AcDbEntity
  8
AM_0
100
AcDbLine
 10
0.5
 20
19.08661853236396
 30
0.0
 11
0.5000000000000002
 21
13.11330523437889
 31
0.0
  0
LINE
  5
118
330
1F
100
AcDbEntity
  8
AM_0
100
AcDbLine
 10
-0.5000000000000002
 20
13.11330523437889
 30
0.0
 11
-0.5000000000000002
 21
19.08661853236396
 31
0.0
  0
ELLIPSE
  5
119
330
1F
100
AcDbEntity
  8
AM_0
100
AcDbEllipse
 10
-0.0000000000000001
 20
15.97055236082016
 30
0.0
 11
2.999999999999999
 21
0.0
 31
0.0
210
0.0
220
0.0
230
1.0
 40
0.9659258262890676
 41
4.544940901164999
 42
4.879837059604379
  0
ELLIPSE
  5
11A
330
1F
100
AcDbEntity
  8
AM_0
100
AcDbEllipse
 10
-0.0000000000000036
 20
16.22937140592268
 30
0.0
 11
2.999999999999996
 21
7.105427357601000E-15
 31
0.0
210
0.0
220
0.0
230
1.0
 40
0.9659258262890684
 41
1.738244406014583
 42
4.544940901164998
  0
ELLIPSE
  5
11B
330
1F
100
AcDbEntity
  8
AM_0
100
AcDbEllipse
 10
0.0
 20
15.97055236082028
 30
0.0
 11
2.999999999999874
 21
0.0
 31
0.0
210
0.0
220
0.0
230
1.0
 40
0.9659258262890699
 41
1.403348247575201
 42
1.738244406014593
  0
ELLIPSE
  5
11C
330
1F
100
AcDbEntity
  8
AM_0
100
AcDbEllipse
 10
-0.0000000000000004
 20
16.22937140592268
 30
0.0
 11
3.0
 21
-1.938653489319104E-14
 31
0.0
210
0.0
220
0.0
230
1.0
 40
0.9659258262890685
 41
4.879837059604386
 42
7.686533554754799
  0
ELLIPSE
  5
11D
330
1F
100
AcDbEntity
  8
AM_0
100
AcDbEllipse
 10
0.0
 20
15.58232379316638
 30
0.0
 11
2.999999999999999
 21
0.0
 31
0.0
210
0.0
220
0.0
230
1.0
 40
0.9659258262890669
 41
4.333828522941761
 42
5.090949437827617
  0
LWPOLYLINE
  5
11E
330
1F
100
AcDbEntity
  8
AM_0
100
AcDbPolyline
 90
        6
 70
     0
 43
0.0
 10
2.172082293439423
 20
13.63333333333333
 10
1.983464306330098
 20
13.44549791377193
 10
1.779750958201109
 20
13.27539631554842
 10
1.562492630637198
 20
13.12432311453543
 10
1.333342790695293
 20
12.99342806901315
 10
1.108749699853685
 20
12.88971583053363
  0
LWPOLYLINE
  5
11F
330
1F
100
AcDbEntity
  8
AM_0
100
AcDbPolyline
 90
        8
 70
     0
 43
0.0
 10
2.939258178798513
 20
15.00215577465157
 10
2.875724700304347
 20
14.76553021044908
 10
2.790305220430815
 20
14.53496589845425
 10
2.683649832997448
 20
14.31221757229987
 10
2.556570249902896
 20
14.09898048124712
 10
2.410033623507261
 20
13.89687748831496
 10
2.245155186018646
 20
13.70744671931275
 10
2.172082293439425
 20
13.63333333333333
  0
ELLIPSE
  5
120
330
1F
100
AcDbEntity
  8
AM_0
100
AcDbEllipse
 10
-0.0000000000000973
 20
15.5823237931664
 30
0.0
 11
3.000000000000096
 21
-1.286324805163106E-13
 31
0.0
210
0.0
220
0.0
230
1.0
 40
0.9659258262890682
 41
6.081611646160801
 42
6.283185307179625
  0
LWPOLYLINE
  5
121
330
1F
100
AcDbEntity
  8
AM_0
100
AcDbPolyline
 90
        8
 70
     0
 43
0.0
 10
-2.172082293439424
 20
13.63333333333333
 10
-2.344169422756527
 20
13.81711041963667
 10
-2.498416007318256
 20
14.01416680542726
 10
-2.633648137479462
 20
14.22300277262334
 10
-2.748836615074224
 20
14.44202895341594
 10
-2.843104786235344
 20
14.66957842631761
 10
-2.915735213259605
 20
14.90391940244144
 10
-2.939258178798513
 20
15.00215577465157
  0
LWPOLYLINE
  5
122
330
1F
100
AcDbEntity
  8
AM_0
100
AcDbPolyline
 90
        6
 70
     0
 43
0.0
 10
-1.108749699853684
 20
12.88971583053363
 10
-1.347485301040582
 20
13.00074043845403
 10
-1.575965725452691
 20
13.1328837406514
 10
-1.792452099099983
 20
13.28514004680569
 10
-1.995296829960954
 20
13.45635059449221
 10
-2.172082293439423
 20
13.63333333333333
  0
LINE
  5
123
330
1F
100
AcDbEntity
  8
AM_0
100
AcDbLine
 10
2.999999999999999
 20
15.58232379316638
 30
0.0
 11
2.999999999999999
 21
16.22937140592268
 31
0.0
  0
LINE
  5
124
330
1F
100
AcDbEntity
  8
AM_0
100
AcDbLine
 10
-2.999999999999999
 20
16.22937140592268
 30
0.0
 11
-2.999999999999999
 21
15.58232379316638
 31
0.0
  0
ELLIPSE
  5
125
330
1F
100
AcDbEntity
  8
AM_9
100
AcDbEllipse
 10
0.0000000000000007
 20
15.58232379316638
 30
0.0
 11
3.000000000000002
 21
0.0
 31
0.0
210
0.0
220
0.0
230
1.0
 40
0.9659258262890684
 41
0.0000000000000006
 42
3.141592653589793
  0
ELLIPSE
  5
126
330
1F
100
AcDbEntity
  8
AM_0
100
AcDbEllipse
 10
0.000000000000095
 20
15.5823237931664
 30
0.0
 11
3.000000000000094
 21
1.278976924368181E-13
 31
0.0
210
0.0
220
0.0
230
1.0
 40
0.965925826289069
 41
3.141592653589754
 42
3.343166314608578
  0
LINE
  5
127
330
1F
100
AcDbEntity
  8
AM_0
100
AcDbLine
 10
-4.259999999999998
 20
17.40063581505608
 30
0.0
 11
-3.272832699297887
 21
15.75771353085021
 31
0.0
  0
LINE
  5
128
330
1F
100
AcDbEntity
  8
AM_0
100
AcDbLine
 10
-6.637167300702115
 20
15.75771353085021
 30
0.0
 11
-5.759999999999999
 21
17.21756507199752
 31
0.0
  0
LINE
  5
129
330
1F
100
AcDbEntity
  8
AM_0
100
AcDbLine
 10
-4.26
 20
19.67655896708346
 30
0.0
 11
-3.100000000000002
 21
19.67655896708346
 31
0.0
  0
LINE
  5
12A
330
1F
100
AcDbEntity
  8
AM_0
100
AcDbLine
 10
10.9
 20
19.75
 30
0.0
 11
-10.9
 21
19.75
 31
0.0
  0
LWPOLYLINE
  5
12B
330
1F
100
AcDbEntity
  8
AM_0
100
AcDbPolyline
 90
        4
 70
     0
 43
0.0
 10
-10.9000000842937
 20
19.75
 10
-11.24862305496357
 20
19.7347787850203
 10
-11.59459279368081
 20
19.68923099741139
 10
-11.66297750819828
 20
19.67655896708346
  0
LINE
  5
12C
330
1F
100
AcDbEntity
  8
AM_0
100
AcDbLine
 10
-11.66297750819828
 20
19.67655896708346
 30
0.0
 11
-5.760000000000002
 21
19.67655896708346
 31
0.0
  0
LINE
  5
12D
330
1F
100
AcDbEntity
  8
AM_0
100
AcDbLine
 10
-5.759999999999999
 20
17.21756507199752
 30
0.0
 11
-5.760000000000002
 21
19.67655896708346
 31
0.0
  0
LINE
  5
12E
330
1F
100
AcDbEntity
  8
AM_0
100
AcDbLine
 10
-4.26
 20
19.67655896708346
 30
0.0
 11
-4.259999999999998
 21
17.40063581505608
 31
0.0
  0
LINE
  5
12F
330
1F
100
AcDbEntity
  8
AM_0
100
AcDbLine
 10
5.76
 20
17.21756507199753
 30
0.0
 11
6.637167300702124
 21
15.7577135308502
 31
0.0
  0
LINE
  5
130
330
1F
100
AcDbEntity
  8
AM_0
100
AcDbLine
 10
3.27283269929789
 20
15.75771353085022
 30
0.0
 11
4.26
 21
17.40063581505607
 31
0.0
  0
LINE
  5
131
330
1F
100
AcDbEntity
  8
AM_0
100
AcDbLine
 10
3.100000000000001
 20
19.67655896708347
 30
0.0
 11
4.26
 21
19.67655896708346
 31
0.0
  0
LINE
  5
132
330
1F
100
AcDbEntity
  8
AM_0
100
AcDbLine
 10
4.26
 20
17.40063581505607
 30
0.0
 11
4.26
 21
19.67655896708346
 31
0.0
  0
LINE
  5
133
330
1F
100
AcDbEntity
  8
AM_0
100
AcDbLine
 10
5.76
 20
19.67655896708346
 30
0.0
 11
5.76
 21
17.21756507199753
 31
0.0
  0
LINE
  5
134
330
1F
100
AcDbEntity
  8
AM_0
100
AcDbLine
 10
5.76
 20
19.67655896708346
 30
0.0
 11
11.66297750819828
 21
19.67655896708346
 31
0.0
  0
LWPOLYLINE
  5
135
330
1F
100
AcDbEntity
  8
AM_0
100
AcDbPolyline
 90
        4
 70
     0
 43
0.0
 10
11.66297750819828
 20
19.67655896708346
 10
11.31785198521174
 20
19.72811509617993
 10
10.96954635631181
 20
19.74939536734289
 10
10.90000008429369
 20
19.75
  0
LINE
  5
136
330
1F
100
AcDbEntity
  8
AM_0
100
AcDbLine
 10
-5.759999999999999
 20
-17.21756507199752
 30
0.0
 11
-6.63716730070211
 21
-15.7577135308502
 31
0.0
  0
LINE
  5
137
330
1F
100
AcDbEntity
  8
AM_0
100
AcDbLine
 10
-3.272832699297886
 20
-15.75771353085021
 30
0.0
 11
-4.259999999999996
 21
-17.40063581505608
 31
0.0
  0
LINE
  5
138
330
1F
100
AcDbEntity
  8
AM_0
100
AcDbLine
 10
-3.100000000000001
 20
-19.67655896708347
 30
0.0
 11
-4.259999999999996
 21
-19.67655896708346
 31
0.0
  0
LINE
  5
139
330
1F
100
AcDbEntity
  8
AM_0
100
AcDbLine
 10
-4.259999999999996
 20
-17.40063581505608
 30
0.0
 11
-4.259999999999996
 21
-19.67655896708346
 31
0.0
  0
LINE
  5
13A
330
1F
100
AcDbEntity
  8
AM_0
100
AcDbLine
 10
-5.76000000000002
 20
-19.67655896708346
 30
0.0
 11
-5.759999999999999
 21
-17.21756507199752
 31
0.0
  0
LINE
  5
13B
330
1F
100
AcDbEntity
  8
AM_0
100
AcDbLine
 10
-5.76000000000002
 20
-19.67655896708346
 30
0.0
 11
-11.66297750819828
 21
-19.67655896708346
 31
0.0
  0
LWPOLYLINE
  5
13C
330
1F
100
AcDbEntity
  8
AM_0
100
AcDbPolyline
 90
        4
 70
     0
 43
0.0
 10
-11.66297750819829
 20
-19.67655896708346
 10
-11.31785198521175
 20
-19.72811509617992
 10
-10.96954635631182
 20
-19.74939536734289
 10
-10.90000000000001
 20
-19.75
  0
LINE
  5
13D
330
1F
100
AcDbEntity
  8
AM_0
100
AcDbLine
 10
6.637167300702121
 20
-15.75771353085019
 30
0.0
 11
5.759999999999996
 21
-17.21756507199753
 31
0.0
  0
LINE
  5
13E
330
1F
100
AcDbEntity
  8
AM_0
100
AcDbLine
 10
4.259999999999995
 20
-17.40063581505607
 30
0.0
 11
3.272832699297898
 21
-15.75771353085021
 31
0.0
  0
LINE
  5
13F
330
1F
100
AcDbEntity
  8
AM_0
100
AcDbLine
 10
10.9
 20
-19.75
 30
0.0
 11
-10.9
 21
-19.75
 31
0.0
  0
LWPOLYLINE
  5
140
330
1F
100
AcDbEntity
  8
AM_0
100
AcDbPolyline
 90
        4
 70
     0
 43
0.0
 10
10.9
 20
-19.75
 10
11.24862297099063
 20
-19.73477879236698
 10
11.59459271066772
 20
-19.68923101204883
 10
11.66297750819828
 20
-19.67655896708346
  0
LINE
  5
141
330
1F
100
AcDbEntity
  8
AM_0
100
AcDbLine
 10
11.66297750819828
 20
-19.67655896708346
 30
0.0
 11
5.759999999999996
 21
-19.67655896708346
 31
0.0
  0
LINE
  5
142
330
1F
100
AcDbEntity
  8
AM_0
100
AcDbLine
 10
5.759999999999996
 20
-17.21756507199753
 30
0.0
 11
5.759999999999996
 21
-19.67655896708346
 31
0.0
  0
LINE
  5
143
330
1F
100
AcDbEntity
  8
AM_0
100
AcDbLine
 10
4.259999999999996
 20
-19.67655896708346
 30
0.0
 11
4.259999999999995
 21
-17.40063581505607
 31
0.0
  0
LINE
  5
144
330
1F
100
AcDbEntity
  8
AM_0
100
AcDbLine
 10
4.259999999999996
 20
-19.67655896708346
 30
0.0
 11
3.100000000000001
 21
-19.67655896708347
 31
0.0
  0
LINE
  5
145
330
1F
100
AcDbEntity
  8
AM_0
100
AcDbLine
 10
-14.7952696104307
 20
-16.36
 30
0.0
 11
-14.7952696104307
 21
-16.65932648815215
 31
0.0
  0
LINE
  5
146
330
1F
100
AcDbEntity
  8
AM_0
100
AcDbLine
 10
-14.7952696104307
 20
16.65932648815213
 30
0.0
 11
-14.7952696104307
 21
16.36
 31
0.0
  0
LWPOLYLINE
  5
147
330
1F
100
AcDbEntity
  8
AM_0
100
AcDbPolyline
 90
        4
 70
     0
 43
0.0
 10
-14.9
 20
15.75
 10
-14.88477879236698
 20
16.09862297099064
 10
-14.83923101204883
 20
16.44459271066772
 10
-14.7952696104307
 20
16.65932648815212
  0
LINE
  5
148
330
1F
100
AcDbEntity
  8
AM_0
100
AcDbLine
 10
-14.9
 20
15.75
 30
0.0
 11
-14.9
 21
-15.75
 31
0.0
  0
LWPOLYLINE
  5
149
330
1F
100
AcDbEntity
  8
AM_0
100
AcDbPolyline
 90
        4
 70
     0
 43
0.0
 10
-14.7952696104307
 20
-16.65932648815214
 10
-14.85969995902398
 20
-16.31637111023208
 10
-14.89399459999688
 20
-15.96910530617893
 10
-14.9
 20
-15.75
  0
LINE
  5
14A
330
1F
100
AcDbEntity
  8
AM_0
100
AcDbLine
 10
14.7952696104307
 20
-16.65932648815214
 30
0.0
 11
14.7952696104307
 21
-16.36
 31
0.0
  0
LWPOLYLINE
  5
14B
330
1F
100
AcDbEntity
  8
AM_0
100
AcDbPolyline
 90
        4
 70
     0
 43
0.0
 10
14.9
 20
-15.75
 10
14.88477879236698
 20
-16.09862297099064
 10
14.83923101204883
 20
-16.44459271066772
 10
14.7952696104307
 20
-16.65932648815213
  0
LINE
  5
14C
330
1F
100
AcDbEntity
  8
AM_0
100
AcDbLine
 10
14.9
 20
-15.75
 30
0.0
 11
14.9
 21
15.75
 31
0.0
  0
LWPOLYLINE
  5
14D
330
1F
100
AcDbEntity
  8
AM_0
100
AcDbPolyline
 90
        4
 70
     0
 43
0.0
 10
14.7952696104307
 20
16.65932648815214
 10
14.85969995902398
 20
16.31637111023208
 10
14.89399459999688
 20
15.96910530617893
 10
14.9
 20
15.74999994039535
  0
LINE
  5
14E
330
1F
100
AcDbEntity
  8
AM_0
100
AcDbLine
 10
14.7952696104307
 20
16.36
 30
0.0
 11
14.7952696104307
 21
16.65932648815214
 31
0.0
  0
CIRCLE
  5
14F
330
1F
100
AcDbEntity
  8
AM_0
100
AcDbCircle
 10
12.35
 20
-6.0
 30
0.0
 40
1.025
  0
LINE
  5
150
330
1F
100
AcDbEntity
  8
AM_0
100
AcDbLine
 10
-13.03
 20
-16.36
 30
0.0
 11
-13.03
 21
-11.6
 31
0.0
  0
LINE
  5
151
330
1F
100
AcDbEntity
  8
AM_0
100
AcDbLine
 10
-14.7952696104307
 20
-16.36
 30
0.0
 11
-13.03
 21
-16.36
 31
0.0
  0
CIRCLE
  5
152
330
1F
100
AcDbEntity
  8
AM_0
100
AcDbCircle
 10
-12.35
 20
0.0
 30
0.0
 40
1.2295
  0
LINE
  5
153
330
1F
100
AcDbEntity
  8
AM_0
100
AcDbLine
 10
-6.780000000000001
 20
11.6
 30
0.0
 11
-6.780000000000001
 21
15.24267545594015
 31
0.0
  0
ARC
  5
154
330
1F
100
AcDbEntity
  8
AM_0
100
AcDbCircle
 10
-5.779999999999617
 20
15.24267545594013
 30
0.0
 40
1.000000000000385
100
AcDbArc
 50
172.3787499962945
 51
179.9999999999987
  0
LINE
  5
155
330
1F
100
AcDbEntity
  8
AM_0
100
AcDbLine
 10
-13.03
 20
11.6
 30
0.0
 11
-6.780000000000001
 21
11.6
 31
0.0
  0
ARC
  5
156
330
1F
100
AcDbEntity
  8
AM_0
100
AcDbCircle
 10
-5.779999999999536
 20
-15.24267545594013
 30
0.0
 40
1.000000000000466
100
AcDbArc
 50
180.0000000000014
 51
187.6212500037052
  0
LINE
  5
157
330
1F
100
AcDbEntity
  8
AM_0
100
AcDbLine
 10
4.970000000000002
 20
7.503272619330845
 30
0.0
 11
7.864972981517483
 21
7.503272619330847
 31
0.0
  0
ARC
  5
158
330
1F
100
AcDbEntity
  8
AM_0
100
AcDbCircle
 10
-0.0000000000000009
 20
0.0000000000000124
 30
0.0
 40
8.99999999999999
100
AcDbArc
 50
56.48039932871379
 51
123.5196006712862
  0
ARC
  5
159
330
1F
100
AcDbEntity
  8
AM_0
100
AcDbCircle
 10
-0.0000000000000551
 20
-0.0000000000000293
 30
0.0
 40
10.87000000000006
100
AcDbArc
 50
19.15423539352795
 51
43.65176029004923
  0
ARC
  5
15A
330
1F
100
AcDbEntity
  8
AM_0
100
AcDbCircle
 10
-0.0000000000000266
 20
0.0000000000000107
 30
0.0
 40
10.86999999999997
100
AcDbArc
 50
132.4924561418109
 51
167.8428055700967
  0
ARC
  5
15B
330
1F
100
AcDbEntity
  8
AM_0
100
AcDbCircle
 10
0.0000000000000018
 20
-0.0000000000000018
 30
0.0
 40
10.87
100
AcDbArc
 50
199.1542353935279
 51
227.507543858189
  0
ARC
  5
15C
330
1F
100
AcDbEntity
  8
AM_0
100
AcDbCircle
 10
-0.0000000000000426
 20
0.0000000000000195
 30
0.0
 40
10.87000000000005
100
AcDbArc
 50
316.3482397099508
 51
347.8636243480711
  0
LINE
  5
15D
330
1F
100
AcDbEntity
  8
AM_0
100
AcDbLine
 10
-6.780000000000001
 20
-11.6
 30
0.0
 11
-13.03
 21
-11.6
 31
0.0
  0
LINE
  5
15E
330
1F
100
AcDbEntity
  8
AM_0
100
AcDbLine
 10
-6.780000000000002
 20
-15.24267545594015
 30
0.0
 11
-6.780000000000001
 21
-11.6
 31
0.0
  0
ARC
  5
15F
330
1F
100
AcDbEntity
  8
AM_0
100
AcDbCircle
 10
4.129999999999963
 20
-15.24267545594015
 30
0.0
 40
0.9999999999999591
100
AcDbArc
 50
180.0000000000006
 51
187.6212500037078
  0
LINE
  5
160
330
1F
100
AcDbEntity
  8
AM_0
100
AcDbLine
 10
6.78
 20
15.24267545594014
 30
0.0
 11
6.780000000000001
 21
11.6
 31
0.0
  0
LINE
  5
161
330
1F
100
AcDbEntity
  8
AM_0
100
AcDbLine
 10
-9.882544409209604
 20
1.654000000000009
 30
0.0
 11
-10.62622396519575
 21
2.28916234494182
 31
0.0
  0
ARC
  5
162
330
1F
100
AcDbEntity
  8
AM_0
100
AcDbCircle
 10
-4.129999999999894
 20
-15.24267545594018
 30
0.0
 40
0.9999999999998903
100
AcDbArc
 50
352.3787499962934
 51
0.0000000000012213
  0
LINE
  5
163
330
1F
100
AcDbEntity
  8
AM_0
100
AcDbLine
 10
3.130000000000004
 20
-11.6
 30
0.0
 11
-3.130000000000004
 21
-11.6
 31
0.0
  0
LINE
  5
164
330
1F
100
AcDbEntity
  8
AM_0
100
AcDbLine
 10
3.130000000000004
 20
-15.24267545594016
 30
0.0
 11
3.130000000000004
 21
-11.6
 31
0.0
  0
LINE
  5
165
330
1F
100
AcDbEntity
  8
AM_0
100
AcDbLine
 10
13.03
 20
-16.36
 30
0.0
 11
13.03
 21
-11.6
 31
0.0
  0
LINE
  5
166
330
1F
100
AcDbEntity
  8
AM_0
100
AcDbLine
 10
13.03
 20
-11.6
 30
0.0
 11
6.780000000000001
 21
-11.6
 31
0.0
  0
LINE
  5
167
330
1F
100
AcDbEntity
  8
AM_0
100
AcDbLine
 10
7.864972981517487
 20
-7.503272619330846
 30
0.0
 11
4.970000000000004
 21
-7.503272619330846
 31
0.0
  0
LINE
  5
168
330
1F
100
AcDbEntity
  8
AM_0
100
AcDbLine
 10
10.26822320066258
 20
3.566579916583196
 30
0.0
 11
9.569717864179694
 21
2.969999999999998
 31
0.0
  0
LINE
  5
169
330
1F
100
AcDbEntity
  8
AM_0
100
AcDbLine
 10
-7.047065352757066
 20
7.503272619330846
 30
0.0
 11
-4.970000000000003
 21
7.503272619330846
 31
0.0
  0
LINE
  5
16A
330
1F
100
AcDbEntity
  8
AM_0
100
AcDbLine
 10
3.130000000000001
 20
11.6
 30
0.0
 11
3.130000000000001
 21
15.24267545594016
 31
0.0
  0
LINE
  5
16B
330
1F
100
AcDbEntity
  8
AM_0
100
AcDbLine
 10
-7.047065352757066
 20
-7.503272619330846
 30
0.0
 11
-7.342610301564102
 21
-8.015171486584972
 31
0.0
  0
LINE
  5
16C
330
1F
100
AcDbEntity
  8
AM_0
100
AcDbLine
 10
-3.130000000000001
 20
11.6
 30
0.0
 11
3.130000000000001
 21
11.6
 31
0.0
  0
ARC
  5
16D
330
1F
100
AcDbEntity
  8
AM_0
100
AcDbCircle
 10
0.0000000000000013
 20
-0.0000000000000107
 30
0.0
 40
8.999999999999991
100
AcDbArc
 50
236.4803993287138
 51
303.5196006712862
  0
LINE
  5
16E
330
1F
100
AcDbEntity
  8
AM_0
100
AcDbLine
 10
-4.970000000000002
 20
-7.503272619330845
 30
0.0
 11
-7.047065352757066
 21
-7.503272619330846
 31
0.0
  0
LINE
  5
16F
330
1F
100
AcDbEntity
  8
AM_0
100
AcDbLine
 10
-13.03
 20
16.36
 30
0.0
 11
-13.03
 21
11.6
 31
0.0
  0
LINE
  5
170
330
1F
100
AcDbEntity
  8
AM_0
100
AcDbLine
 10
-10.26822320066259
 20
-3.566579916583195
 30
0.0
 11
-9.569717864179694
 21
-2.970000000000002
 31
0.0
  0
ARC
  5
171
330
1F
100
AcDbEntity
  8
AM_0
100
AcDbCircle
 10
5.780000000000136
 20
-15.24267545594014
 30
0.0
 40
0.9999999999998669
100
AcDbArc
 50
352.378749996291
 51
0.0000000000002036
  0
LINE
  5
172
330
1F
100
AcDbEntity
  8
AM_0
100
AcDbLine
 10
-3.130000000000004
 20
15.24267545594016
 30
0.0
 11
-3.130000000000001
 21
11.6
 31
0.0
  0
LINE
  5
173
330
1F
100
AcDbEntity
  8
AM_0
100
AcDbLine
 10
13.03
 20
11.6
 30
0.0
 11
13.03
 21
16.36
 31
0.0
  0
LINE
  5
174
330
1F
100
AcDbEntity
  8
AM_0
100
AcDbLine
 10
9.883213040302227
 20
-1.649999999999994
 30
0.0
 11
10.62705504508023
 21
-2.28530108931731
 31
0.0
  0
ARC
  5
175
330
1F
100
AcDbEntity
  8
AM_0
100
AcDbCircle
 10
-4.129999999999523
 20
15.24267545594019
 30
0.0
 40
0.9999999999995186
100
AcDbArc
 50
359.9999999999983
 51
7.621250003708838
  0
LINE
  5
176
330
1F
100
AcDbEntity
  8
AM_0
100
AcDbLine
 10
-3.130000000000004
 20
-11.6
 30
0.0
 11
-3.130000000000004
 21
-15.24267545594016
 31
0.0
  0
ARC
  5
177
330
1F
100
AcDbEntity
  8
AM_0
100
AcDbCircle
 10
4.129999999999827
 20
15.24267545594016
 30
0.0
 40
0.9999999999998263
100
AcDbArc
 50
172.3787499962917
 51
179.9999999999997
  0
CIRCLE
  5
178
330
1F
100
AcDbEntity
  8
AM_0
100
AcDbCircle
 10
12.35
 20
-6.0
 30
0.0
 40
1.324999999999998
  0
LINE
  5
179
330
1F
100
AcDbEntity
  8
AM_0
100
AcDbLine
 10
-7.342610301564099
 20
8.01517148658497
 30
0.0
 11
-7.047065352757066
 21
7.503272619330846
 31
0.0
  0
LINE
  5
17A
330
1F
100
AcDbEntity
  8
AM_0
100
AcDbLine
 10
6.780000000000001
 20
11.6
 30
0.0
 11
13.03
 21
11.6
 31
0.0
  0
ARC
  5
17B
330
1F
100
AcDbEntity
  8
AM_0
100
AcDbCircle
 10
5.779999999999736
 20
15.24267545594015
 30
0.0
 40
1.000000000000264
100
AcDbArc
 50
359.9999999999993
 51
7.621250003705191
  0
LINE
  5
17D
330
1F
100
AcDbEntity
  8
AM_4
100
AcDbLine
 10
-13.03
 20
-15.37529946162075
 30
0.0
 11
-13.71744224345622
 21
-15.37529946162075
 31
0.0
  0
LINE
  5
17E
330
1F
100
AcDbEntity
  8
AM_0
100
AcDbLine
 10
6.780000000000001
 20
-11.6
 30
0.0
 11
6.780000000000001
 21
-15.24267545594014
 31
0.0
  0
CIRCLE
  5
17F
330
1F
100
AcDbEntity
  8
AM_0
100
AcDbCircle
 10
12.35
 20
6.0
 30
0.0
 40
1.324999999999998
  0
CIRCLE
  5
180
330
1F
100
AcDbEntity
  8
AM_0
100
AcDbCircle
 10
12.35
 20
6.0
 30
0.0
 40
1.025
  0
LINE
  5
181
330
1F
100
AcDbEntity
  8
AM_0
100
AcDbLine
 10
-13.03
 20
16.36
 30
0.0
 11
-14.7952696104307
 21
16.36
 31
0.0
  0
LINE
  5
182
330
1F
100
AcDbEntity
  8
AM_4
100
AcDbLine
 10
-13.03
 20
15.37529946162075
 30
0.0
 11
-13.71744224345622
 21
15.37529946162075
 31
0.0
  0
CIRCLE
  5
183
330
1F
100
AcDbEntity
  8
AM_0
100
AcDbCircle
 10
-12.35
 20
6.0
 30
0.0
 40
1.324999999999998
  0
CIRCLE
  5
184
330
1F
100
AcDbEntity
  8
AM_0
100
AcDbCircle
 10
-12.35
 20
6.0
 30
0.0
 40
1.025
  0
LINE
  5
185
330
1F
100
AcDbEntity
  8
AM_0
100
AcDbLine
 10
14.7952696104307
 20
16.36
 30
0.0
 11
13.03
 21
16.36
 31
0.0
  0
LINE
  5
186
330
1F
100
AcDbEntity
  8
AM_4
100
AcDbLine
 10
13.71744224345622
 20
15.37529946162075
 30
0.0
 11
13.03
 21
15.37529946162075
 31
0.0
  0
LINE
  5
187
330
1F
100
AcDbEntity
  8
AM_0
100
AcDbLine
 10
13.03
 20
-16.36
 30
0.0
 11
14.7952696104307
 21
-16.36
 31
0.0
  0
LINE
  5
188
330
1F
100
AcDbEntity
  8
AM_4
100
AcDbLine
 10
13.71744224345622
 20
-15.37529946162075
 30
0.0
 11
13.03
 21
-15.37529946162075
 31
0.0
  0
LWPOLYLINE
  5
189
330
1F
100
AcDbEntity
  8
AM_0
100
AcDbPolyline
 90
        4
 70
     0
 43
0.0
 10
-6.637167300702109
 20
-15.7577135308502
 10
-6.706016801612932
 20
-15.62015775106212
 10
-6.754185065852743
 20
-15.46842633073244
 10
-6.771166420495184
 20
-15.37529946162075
  0
LWPOLYLINE
  5
18A
330
1F
100
AcDbEntity
  8
AM_0
100
AcDbPolyline
 90
        4
 70
     0
 43
0.0
 10
-3.138833579504819
 20
-15.37529946162075
 10
-3.171258753399746
 20
-15.52695563827347
 10
-3.228426360778164
 20
-15.67530112908069
 10
-3.272832699297886
 20
-15.75771353085021
  0
LINE
  5
18B
330
1F
100
AcDbEntity
  8
AM_4
100
AcDbLine
 10
-3.138833579504819
 20
-15.37529946162075
 30
0.0
 11
-6.771166420495184
 21
-15.37529946162075
 31
0.0
  0
LINE
  5
18C
330
1F
100
AcDbEntity
  8
AM_4
100
AcDbLine
 10
-4.083776265358844
 20
-17.10735026918963
 30
0.0
 11
-5.826223734641149
 21
-17.10735026918963
 31
0.0
  0
LWPOLYLINE
  5
18D
330
1F
100
AcDbEntity
  8
AM_0
100
AcDbPolyline
 90
        4
 70
     0
 43
0.0
 10
3.272832699297897
 20
-15.75771353085021
 10
3.203983198387075
 20
-15.62015775106213
 10
3.155814934147263
 20
-15.46842633073244
 10
3.138833579504822
 20
-15.37529946162075
  0
LWPOLYLINE
  5
18E
330
1F
100
AcDbEntity
  8
AM_0
100
AcDbPolyline
 90
        4
 70
     0
 43
0.0
 10
6.771166420495183
 20
-15.37529946162075
 10
6.738741246600253
 20
-15.52695563827347
 10
6.681573639221831
 20
-15.67530112908069
 10
6.637167300702121
 20
-15.75771353085019
  0
LINE
  5
18F
330
1F
100
AcDbEntity
  8
AM_4
100
AcDbLine
 10
6.771166420495183
 20
-15.37529946162075
 30
0.0
 11
3.138833579504822
 21
-15.37529946162075
 31
0.0
  0
LINE
  5
190
330
1F
100
AcDbEntity
  8
AM_4
100
AcDbLine
 10
5.826223734641154
 20
-17.10735026918963
 30
0.0
 11
4.08377626535885
 21
-17.10735026918963
 31
0.0
  0
CIRCLE
  5
191
330
1F
100
AcDbEntity
  8
AM_0
100
AcDbCircle
 10
-12.35
 20
-6.0
 30
0.0
 40
1.324999999999998
  0
CIRCLE
  5
192
330
1F
100
AcDbEntity
  8
AM_0
100
AcDbCircle
 10
-12.35
 20
-6.0
 30
0.0
 40
1.025
  0
LWPOLYLINE
  5
193
330
1F
100
AcDbEntity
  8
AM_0
100
AcDbPolyline
 90
        7
 70
     0
 43
0.0
 10
-13.71744224345622
 20
0.616523893139119
 10
-13.78658612661714
 20
0.4231384194273627
 10
-13.82798991259723
 20
0.2172460681550873
 10
-13.84213210762501
 20
-0.0137832151393065
 10
-13.82344032303842
 20
-0.2492074558303153
 10
-13.78332387596679
 20
-0.4348214832929448
 10
-13.71744224345622
 20
-0.6165238931391204
  0
LINE
  5
194
330
1F
100
AcDbEntity
  8
AM_4
100
AcDbLine
 10
-13.71744224345622
 20
0.616523893139119
 30
0.0
 11
-13.71744224345622
 21
15.37529946162075
 31
0.0
  0
LWPOLYLINE
  5
195
330
1F
100
AcDbEntity
  8
AM_0
100
AcDbPolyline
 90
        6
 70
     0
 43
0.0
 10
-13.71744224345622
 20
15.37529946162075
 10
-13.72260621552542
 20
15.38260243310293
 10
-13.91025148025896
 20
15.64861774041874
 10
-14.15293758903351
 20
15.99907177943799
 10
-14.37642790284986
 20
16.33963918042157
 10
-14.3891741704665
 20
16.36
  0
LINE
  5
196
330
1F
100
AcDbEntity
  8
AM_4
100
AcDbLine
 10
-14.71728993861261
 20
16.36
 30
0.0
 11
-14.71728993861261
 21
-16.36
 31
0.0
  0
LWPOLYLINE
  5
197
330
1F
100
AcDbEntity
  8
AM_0
100
AcDbPolyline
 90
        6
 70
     0
 43
0.0
 10
-14.38917417046734
 20
-16.36
 10
-14.37642790284986
 20
-16.33963918042157
 10
-14.15293758903351
 20
-15.99907177943799
 10
-13.91025148025895
 20
-15.64861774041873
 10
-13.72260621552547
 20
-15.3826024331029
 10
-13.71744224345622
 20
-15.37529946162075
  0
LINE
  5
198
330
1F
100
AcDbEntity
  8
AM_4
100
AcDbLine
 10
-13.71744224345622
 20
-15.37529946162075
 30
0.0
 11
-13.71744224345622
 21
-0.6165238931391204
 31
0.0
  0
LINE
  5
199
330
1F
100
AcDbEntity
  8
AM_4
100
AcDbLine
 10
13.71744224345622
 20
-15.37529946162075
 30
0.0
 11
13.71744224345622
 21
-0.6165238931391113
 31
0.0
  0
LWPOLYLINE
  5
19A
330
1F
100
AcDbEntity
  8
AM_0
100
AcDbPolyline
 90
        6
 70
     0
 43
0.0
 10
13.71744224345622
 20
-15.37529946162075
 10
13.72260621552545
 20
-15.38260243310291
 10
13.91025148025894
 20
-15.64861774041873
 10
14.15293758903351
 20
-15.99907177943798
 10
14.37642790284985
 20
-16.33963918042157
 10
14.38917417046733
 20
-16.36
  0
LINE
  5
19B
330
1F
100
AcDbEntity
  8
AM_4
100
AcDbLine
 10
14.71728993861261
 20
16.36
 30
0.0
 11
14.71728993861261
 21
-16.36
 31
0.0
  0
LWPOLYLINE
  5
19C
330
1F
100
AcDbEntity
  8
AM_0
100
AcDbPolyline
 90
        6
 70
     0
 43
0.0
 10
14.38917417046733
 20
16.36
 10
14.37642790284985
 20
16.33963918042157
 10
14.15293758903351
 20
15.99907177943798
 10
13.91025148025894
 20
15.64861774041873
 10
13.72260621552539
 20
15.38260243310295
 10
13.71744224345622
 20
15.37529946162075
  0
LINE
  5
19D
330
1F
100
AcDbEntity
  8
AM_4
100
AcDbLine
 10
13.71744224345622
 20
0.6165238931391283
 30
0.0
 11
13.71744224345622
 21
15.37529946162075
 31
0.0
  0
LWPOLYLINE
  5
19E
330
1F
100
AcDbEntity
  8
AM_0
100
AcDbPolyline
 90
        4
 70
     0
 43
0.0
 10
-6.771166420495184
 20
15.37529946162075
 10
-6.738741246600254
 20
15.52695563827347
 10
-6.681573639221832
 20
15.67530112908069
 10
-6.637167300702115
 20
15.75771353085021
  0
LINE
  5
19F
330
1F
100
AcDbEntity
  8
AM_4
100
AcDbLine
 10
-3.138833579504821
 20
15.37529946162075
 30
0.0
 11
-6.771166420495184
 21
15.37529946162075
 31
0.0
  0
LWPOLYLINE
  5
1A0
330
1F
100
AcDbEntity
  8
AM_0
100
AcDbPolyline
 90
        4
 70
     0
 43
0.0
 10
-3.272832699297889
 20
15.75771353085021
 10
-3.203983198387068
 20
15.62015775106213
 10
-3.15581493414726
 20
15.46842633073245
 10
-3.138833579504821
 20
15.37529946162075
  0
LINE
  5
1A1
330
1F
100
AcDbEntity
  8
AM_4
100
AcDbLine
 10
-4.083776265358842
 20
17.10735026918963
 30
0.0
 11
-5.82622373464115
 21
17.10735026918963
 31
0.0
  0
LWPOLYLINE
  5
1A2
330
1F
100
AcDbEntity
  8
AM_0
100
AcDbPolyline
 90
        4
 70
     0
 43
0.0
 10
3.138833579504819
 20
15.37529946162075
 10
3.171258753399745
 20
15.52695563827347
 10
3.228426360778164
 20
15.67530112908069
 10
3.272832699297891
 20
15.75771353085022
  0
LINE
  5
1A3
330
1F
100
AcDbEntity
  8
AM_4
100
AcDbLine
 10
6.771166420495184
 20
15.37529946162075
 30
0.0
 11
3.138833579504819
 21
15.37529946162075
 31
0.0
  0
LWPOLYLINE
  5
1A4
330
1F
100
AcDbEntity
  8
AM_0
100
AcDbPolyline
 90
        4
 70
     0
 43
0.0
 10
6.637167300702125
 20
15.7577135308502
 10
6.706016801612944
 20
15.62015775106211
 10
6.75418506585275
 20
15.46842633073242
 10
6.771166420495184
 20
15.37529946162075
  0
LINE
  5
1A5
330
1F
100
AcDbEntity
  8
AM_4
100
AcDbLine
 10
5.826223734641157
 20
17.10735026918963
 30
0.0
 11
4.083776265358851
 21
17.10735026918963
 31
0.0
  0
CIRCLE
  5
1A6
330
1F
100
AcDbEntity
  8
AM_0
100
AcDbCircle
 10
12.35
 20
0.0
 30
0.0
 40
1.2295
  0
LWPOLYLINE
  5
1A7
330
1F
100
AcDbEntity
  8
AM_0
100
AcDbPolyline
 90
        7
 70
     0
 43
0.0
 10
13.71744224345622
 20
-0.6165238931391113
 10
13.78658612661714
 20
-0.423138419427352
 10
13.82798991259723
 20
-0.2172460681550716
 10
13.842132107625
 20
0.0137832151393235
 10
13.82344032303841
 20
0.2492074558303335
 10
13.78332387596678
 20
0.4348214832929577
 10
13.71744224345622
 20
0.6165238931391283
  0
ARC
  5
1A9
330
1F
100
AcDbEntity
  8
AM_5
100
AcDbCircle
 10
-12.35
 20
-0.0000000000000021
 30
0.0
 40
1.5
100
AcDbArc
 50
75.00000000000006
 51
15.00000000000001
  0
ARC
  5
1AA
330
1F
100
AcDbEntity
  8
AM_5
100
AcDbCircle
 10
12.35
 20
0.0000000000000007
 30
0.0
 40
1.5
100
AcDbArc
 50
74.99999999999991
 51
14.99999999999992
  0
LINE
  5
1AD
330
1F
100
AcDbEntity
  8
AM_7
100
AcDbLine
 10
10.95875
 20
-6.0
 30
0.0
 11
13.74125
 21
-6.0
 31
0.0
  0
LINE
  5
1AE
330
1F
100
AcDbEntity
  8
AM_7
100
AcDbLine
 10
12.35
 20
-7.391249999999998
 30
0.0
 11
12.35
 21
-4.608750000000002
 31
0.0
  0
LINE
  5
1AF
330
1F
100
AcDbEntity
  8
AM_7
100
AcDbLine
 10
10.95875
 20
6.0
 30
0.0
 11
13.74125
 21
6.0
 31
0.0
  0
LINE
  5
1B0
330
1F
100
AcDbEntity
  8
AM_7
100
AcDbLine
 10
12.35
 20
4.608750000000002
 30
0.0
 11
12.35
 21
7.391249999999998
 31
0.0
  0
LINE
  5
1B1
330
1F
100
AcDbEntity
  8
AM_7
100
AcDbLine
 10
-13.74125
 20
6.0
 30
0.0
 11
-10.95875
 21
6.0
 31
0.0
  0
LINE
  5
1B2
330
1F
100
AcDbEntity
  8
AM_7
100
AcDbLine
 10
-12.35
 20
4.608750000000002
 30
0.0
 11
-12.35
 21
7.391249999999998
 31
0.0
  0
LINE
  5
1B3
330
1F
100
AcDbEntity
  8
AM_7
100
AcDbLine
 10
-13.74125
 20
-6.0
 30
0.0
 11
-10.95875
 21
-6.0
 31
0.0
  0
LINE
  5
1B4
330
1F
100
AcDbEntity
  8
AM_7
100
AcDbLine
 10
-12.35
 20
-7.391249999999998
 30
0.0
 11
-12.35
 21
-4.608750000000002
 31
0.0
  0
LINE
  5
1B5
330
1F
100
AcDbEntity
  8
AM_7
100
AcDbLine
 10
-13.925
 20
-0.0000000000000013
 30
0.0
 11
-10.775
 21
-0.0000000000000013
 31
0.0
  0
LINE
  5
1B6
330
1F
100
AcDbEntity
  8
AM_7
100
AcDbLine
 10
-12.35
 20
-1.575000000000002
 30
0.0
 11
-12.35
 21
1.574999999999999
 31
0.0
  0
LINE
  5
1B7
330
1F
100
AcDbEntity
  8
AM_7
100
AcDbLine
 10
10.775
 20
0.0000000000000086
 30
0.0
 11
13.925
 21
0.0000000000000086
 31
0.0
  0
LINE
  5
1B8
330
1F
100
AcDbEntity
  8
AM_7
100
AcDbLine
 10
12.35
 20
-1.57499999999999
 30
0.0
 11
12.35
 21
1.575000000000007
 31
0.0
  0
POINT
  5
1BA
330
1F
100
AcDbEntity
  8
2d ConnectionPoints
100
AcDbPoint
 10
-9.9
 20
0.0
 30
0.0
  0
POINT
  5
1BB
330
1F
100
AcDbEntity
  8
2d ConnectionPoints
100
AcDbPoint
 10
0.0
 20
0.0
 30
0.0
  0
POINT
  5
1BC
330
1F
100
AcDbEntity
  8
2d ConnectionPoints
100
AcDbPoint
 10
9.9
 20
0.0
 30
0.0
  0
POINT
  5
1BD
330
1F
100
AcDbEntity
  8
2d ConnectionPoints
100
AcDbPoint
 10
0.0
 20
0.0
 30
0.0
  0
POINT
  5
1BE
330
1F
100
AcDbEntity
  8
2d ConnectionPoints
100
AcDbPoint
 10
0.0
 20
16.31207195999742
 30
0.0
  0
ENDSEC
  0
SECTION
  2
OBJECTS
  0
DICTIONARY
  5
C
330
0
100
AcDbDictionary
281
     1
  3
ACAD_DETAILVIEWSTYLE
350
1C6
  3
ACAD_GROUP
350
D
  3
ACAD_LAYOUT
350
1A
  3
ACAD_MATERIAL
350
43
  3
ACAD_MLEADERSTYLE
350
5B
  3
ACAD_MLINESTYLE
350
17
  3
ACAD_PLOTSETTINGS
350
19
  3
ACAD_PLOTSTYLENAME
350
E
  3
ACAD_SCALELIST
350
47
  3
ACAD_SECTIONVIEWSTYLE
350
1C7
  3
ACAD_TABLESTYLE
350
59
  3
ACAD_VISUALSTYLE
350
2A
  3
ACDB_RECOMPOSE_DATA
350
1C3
  3
AcDbVariableDictionary
350
1BF
  0
SUN
  5
5D
330
29
100
AcDbSun
 90
        1
290
     0
 63
     7
421
 16777215
 40
1.0
291
     1
 91
  2455826
 92
 54000000
292
     0
 70
     2
 71
   256
280
     1
  0
DICTIONARY
  5
1C6
102
{ACAD_REACTORS
330
C
102
}
330
C
100
AcDbDictionary
281
     1
  0
DICTIONARY
  5
D
102
{ACAD_REACTORS
330
C
102
}
330
C
100
AcDbDictionary
281
     1
  0
DICTIONARY
  5
1A
102
{ACAD_REACTORS
330
C
102
}
330
C
100
AcDbDictionary
281
     1
  3
Layout1
350
1E
  3
Layout2
350
26
  3
Model
350
22
  0
DICTIONARY
  5
43
102
{ACAD_REACTORS
330
C
102
}
330
C
100
AcDbDictionary
281
     1
  3
ByBlock
350
45
  3
ByLayer
350
44
  3
Global
350
46
  0
DICTIONARY
  5
5B
102
{ACAD_REACTORS
330
C
102
}
330
C
100
AcDbDictionary
281
     1
  3
Standard
350
5C
  0
DICTIONARY
  5
17
102
{ACAD_REACTORS
330
C
102
}
330
C
100
AcDbDictionary
281
     1
  3
Standard
350
18
  0
DICTIONARY
  5
19
102
{ACAD_REACTORS
330
C
102
}
330
C
100
AcDbDictionary
281
     1
  0
ACDBDICTIONARYWDFLT
  5
E
102
{ACAD_REACTORS
330
C
102
}
330
C
100
AcDbDictionary
281
     1
  3
Normal
350
F
100
AcDbDictionaryWithDefault
340
F
  0
DICTIONARY
  5
47
102
{ACAD_REACTORS
330
C
102
}
330
C
100
AcDbDictionary
281
     1
  3
A0
350
48
  3
A1
350
49
  3
A2
350
4A
  3
A3
350
4B
  3
A4
350
4C
  3
A5
350
4D
  3
A6
350
4E
  3
A7
350
4F
  3
A8
350
50
  3
A9
350
51
  3
B0
350
52
  3
B1
350
53
  3
B2
350
54
  3
B3
350
55
  3
B4
350
56
  3
B5
350
57
  3
B6
350
58
  0
DICTIONARY
  5
1C7
102
{ACAD_REACTORS
330
C
102
}
330
C
100
AcDbDictionary
281
     1
  0
DICTIONARY
  5
59
102
{ACAD_REACTORS
330
C
102
}
330
C
100
AcDbDictionary
281
     1
  3
Standard
350
5A
  0
DICTIONARY
  5
2A
102
{ACAD_REACTORS
330
C
102
}
330
C
100
AcDbDictionary
281
     1
  3
2dWireframe
350
2F
  3
Basic
350
32
  3
Brighten
350
36
  3
ColorChange
350
3A
  3
Conceptual
350
34
  3
Dim
350
35
  3
EdgeColorOff
350
3D
  3
Facepattern
350
39
  3
Flat
350
2B
  3
FlatWithEdges
350
2C
  3
Gouraud
350
2D
  3
GouraudWithEdges
350
2E
  3
Hidden
350
31
  3
JitterOff
350
3B
  3
Linepattern
350
38
  3
OverhangOff
350
3C
  3
Realistic
350
33
  3
Shaded
350
42
  3
Shaded with edges
350
41
  3
Shades of Gray
350
3E
  3
Sketchy
350
3F
  3
Thicken
350
37
  3
Wireframe
350
30
  3
X-Ray
350
40
  0
XRECORD
  5
1C3
102
{ACAD_REACTORS
330
C
102
}
330
C
100
AcDbXrecord
280
     1
 90
        1
330
5A
  0
DICTIONARY
  5
1BF
102
{ACAD_REACTORS
330
C
102
}
330
C
100
AcDbDictionary
281
     1
  3
CANNOSCALE
350
1C0
  3
CENTEREXE
350
1C8
  3
CENTERLTYPEFILE
350
1C9
  3
CMLEADERSTYLE
350
1C5
  3
CTABLESTYLE
350
1C4
  0
LAYOUT
  5
1E
102
{ACAD_REACTORS
330
1A
102
}
330
1A
100
AcDbPlotSettings
  1

  2
none_device
  4

  6

 40
0.0
 41
0.0
 42
0.0
 43
0.0
 44
0.0
 45
0.0
 46
0.0
 47
0.0
 48
0.0
 49
0.0
140
0.0
141
0.0
142
1.0
143
1.0
 70
   688
 72
     1
 73
     0
 74
     5
  7

 75
    16
 76
     0
 77
     2
 78
   300
147
1.0
148
0.0
149
0.0
100
AcDbLayout
  1
Layout1
 70
     1
 71
     1
 10
0.0
 20
0.0
 11
420.0
 21
297.0
 12
0.0
 22
0.0
 32
0.0
 14
1.000000000000000E+20
 24
1.000000000000000E+20
 34
1.000000000000000E+20
 15
-1.000000000000000E+20
 25
-1.000000000000000E+20
 35
-1.000000000000000E+20
146
0.0
 13
0.0
 23
0.0
 33
0.0
 16
1.0
 26
0.0
 36
0.0
 17
0.0
 27
1.0
 37
0.0
 76
     0
330
1B
  0
LAYOUT
  5
26
102
{ACAD_REACTORS
330
1A
102
}
330
1A
100
AcDbPlotSettings
  1

  2
none_device
  4

  6

 40
0.0
 41
0.0
 42
0.0
 43
0.0
 44
0.0
 45
0.0
 46
0.0
 47
0.0
 48
0.0
 49
0.0
140
0.0
141
0.0
142
1.0
143
1.0
 70
   688
 72
     1
 73
     0
 74
     5
  7

 75
    16
 76
     0
 77
     2
 78
   300
147
1.0
148
0.0
149
0.0
100
AcDbLayout
  1
Layout2
 70
     1
 71
     2
 10
0.0
 20
0.0
 11
0.0
 21
0.0
 12
0.0
 22
0.0
 32
0.0
 14
0.0
 24
0.0
 34
0.0
 15
0.0
 25
0.0
 35
0.0
146
0.0
 13
0.0
 23
0.0
 33
0.0
 16
1.0
 26
0.0
 36
0.0
 17
0.0
 27
1.0
 37
0.0
 76
     0
330
23
  0
LAYOUT
  5
22
102
{ACAD_REACTORS
330
1A
102
}
330
1A
100
AcDbPlotSettings
  1

  2
none_device
  4
Letter_(8.50_x_11.00_Inches)
  6

 40
6.35
 41
6.35
 42
6.35000508
 43
6.35000508
 44
215.9
 45
279.4
 46
0.0
 47
0.0
 48
0.0
 49
0.0
140
0.0
141
0.0
142
1.0
143
1.0
 70
  1712
 72
     1
 73
     0
 74
     0
  7

 75
     0
 76
     0
 77
     2
 78
   300
147
1.0
148
0.0
149
0.0
100
AcDbLayout
  1
Model
 70
     1
 71
     0
 10
0.0
 20
0.0
 11
420.0
 21
297.0
 12
0.0
 22
0.0
 32
0.0
 14
-14.9
 24
-19.75
 34
0.0
 15
23.32237288135593
 25
20.25542372881356
 35
0.0
146
0.0
 13
0.0
 23
0.0
 33
0.0
 16
1.0
 26
0.0
 36
0.0
 17
0.0
 27
1.0
 37
0.0
 76
     0
330
1F
331
29
  0
MATERIAL
  5
45
102
{ACAD_REACTORS
330
43
102
}
330
43
100
AcDbMaterial
  1
ByBlock
 72
     1
 94
      127
  0
MATERIAL
  5
44
102
{ACAD_REACTORS
330
43
102
}
330
43
100
AcDbMaterial
  1
ByLayer
 72
     1
 94
      127
  0
MATERIAL
  5
46
102
{ACAD_REACTORS
330
43
102
}
330
43
100
AcDbMaterial
  1
Global
 72
     1
 94
      127
  0
MLEADERSTYLE
  5
5C
102
{ACAD_REACTORS
330
5B
102
}
330
5B
100
AcDbMLeaderStyle
179
     2
170
     2
171
     1
172
     0
 90
        2
 40
0.0
 41
0.0
173
     1
 91
-1056964608
340
14
 92
       -2
290
     1
 42
2.0
291
     1
 43
8.0
  3
Standard
341
0
 44
4.0
300

342
11
174
     1
178
     6
175
     1
176
     0
 93
-1056964608
 45
4.0
292
     0
297
     0
 46
4.0
343
0
 94
-1056964608
 47
1.0
 49
1.0
140
1.0
293
     1
141
0.0
294
     1
177
     0
142
1.0
295
     0
296
     0
143
3.75
271
     0
272
     9
273
     9
298
     0
  0
MLINESTYLE
  5
18
102
{ACAD_REACTORS
330
17
102
}
330
17
100
AcDbMlineStyle
  2
Standard
 70
     0
  3

 62
   256
 51
90.0
 52
90.0
 71
     2
 49
0.5
 62
   256
  6
BYLAYER
 49
-0.5
 62
   256
  6
BYLAYER
  0
ACDBPLACEHOLDER
  5
F
102
{ACAD_REACTORS
330
E
102
}
330
E
  0
SCALE
  5
48
102
{ACAD_REACTORS
330
47
102
}
330
47
100
AcDbScale
 70
     0
300
1:1
140
1.0
141
1.0
290
     1
  0
SCALE
  5
49
102
{ACAD_REACTORS
330
47
102
}
330
47
100
AcDbScale
 70
     0
300
1:2
140
1.0
141
2.0
290
     0
  0
SCALE
  5
4A
102
{ACAD_REACTORS
330
47
102
}
330
47
100
AcDbScale
 70
     0
300
1:4
140
1.0
141
4.0
290
     0
  0
SCALE
  5
4B
102
{ACAD_REACTORS
330
47
102
}
330
47
100
AcDbScale
 70
     0
300
1:5
140
1.0
141
5.0
290
     0
  0
SCALE
  5
4C
102
{ACAD_REACTORS
330
47
102
}
330
47
100
AcDbScale
 70
     0
300
1:8
140
1.0
141
8.0
290
     0
  0
SCALE
  5
4D
102
{ACAD_REACTORS
330
47
102
}
330
47
100
AcDbScale
 70
     0
300
1:10
140
1.0
141
10.0
290
     0
  0
SCALE
  5
4E
102
{ACAD_REACTORS
330
47
102
}
330
47
100
AcDbScale
 70
     0
300
1:16
140
1.0
141
16.0
290
     0
  0
SCALE
  5
4F
102
{ACAD_REACTORS
330
47
102
}
330
47
100
AcDbScale
 70
     0
300
1:20
140
1.0
141
20.0
290
     0
  0
SCALE
  5
50
102
{ACAD_REACTORS
330
47
102
}
330
47
100
AcDbScale
 70
     0
300
1:30
140
1.0
141
30.0
290
     0
  0
SCALE
  5
51
102
{ACAD_REACTORS
330
47
102
}
330
47
100
AcDbScale
 70
     0
300
1:40
140
1.0
141
40.0
290
     0
  0
SCALE
  5
52
102
{ACAD_REACTORS
330
47
102
}
330
47
100
AcDbScale
 70
     0
300
1:50
140
1.0
141
50.0
290
     0
  0
SCALE
  5
53
102
{ACAD_REACTORS
330
47
102
}
330
47
100
AcDbScale
 70
     0
300
1:100
140
1.0
141
100.0
290
     0
  0
SCALE
  5
54
102
{ACAD_REACTORS
330
47
102
}
330
47
100
AcDbScale
 70
     0
300
2:1
140
2.0
141
1.0
290
     0
  0
SCALE
  5
55
102
{ACAD_REACTORS
330
47
102
}
330
47
100
AcDbScale
 70
     0
300
4:1
140
4.0
141
1.0
290
     0
  0
SCALE
  5
56
102
{ACAD_REACTORS
330
47
102
}
330
47
100
AcDbScale
 70
     0
300
8:1
140
8.0
141
1.0
290
     0
  0
SCALE
  5
57
102
{ACAD_REACTORS
330
47
102
}
330
47
100
AcDbScale
 70
     0
300
10:1
140
10.0
141
1.0
290
     0
  0
SCALE
  5
58
102
{ACAD_REACTORS
330
47
102
}
330
47
100
AcDbScale
 70
     0
300
100:1
140
100.0
141
1.0
290
     0
  0
TABLESTYLE
  5
5A
102
{ACAD_REACTORS
330
59
102
}
102
{ACAD_XDICTIONARY
360
1C1
102
}
330
59
100
AcDbTableStyle
  3
Standard
 70
     0
 71
     0
 40
0.06
 41
0.06
280
     0
281
     0
  7
Standard
140
4.5
170
     2
 62
     0
 63
   257
283
     0
 90
        4
 91
        0
  1

274
    -2
284
     1
 64
     0
275
    -2
285
     1
 65
     0
276
    -2
286
     1
 66
     0
277
    -2
287
     1
 67
     0
278
    -2
288
     1
 68
     0
279
    -2
289
     1
 69
     0
  7
Standard
140
6.0
170
     5
 62
     0
 63
   257
283
     0
 90
        4
 91
        0
  1

274
    -2
284
     1
 64
     0
275
    -2
285
     1
 65
     0
276
    -2
286
     1
 66
     0
277
    -2
287
     1
 67
     0
278
    -2
288
     1
 68
     0
279
    -2
289
     1
 69
     0
  7
Standard
140
4.5
170
     5
 62
     0
 63
   257
283
     0
 90
        4
 91
        0
  1

274
    -2
284
     1
 64
     0
275
    -2
285
     1
 65
     0
276
    -2
286
     1
 66
     0
277
    -2
287
     1
 67
     0
278
    -2
288
     1
 68
     0
279
    -2
289
     1
 69
     0
  0
VISUALSTYLE
  5
2F
102
{ACAD_REACTORS
330
2A
102
}
330
2A
100
AcDbVisualStyle
  2
2dWireframe
 70
     4
177
     3
291
     0
 70
    58
 90
        0
176
     1
 90
        2
176
     1
 90
        0
176
     1
 90
        0
176
     1
 40
0.6
176
     1
 40
30.0
176
     1
 62
     7
420
 16777215
176
     1
 90
        1
176
     1
 90
        4
176
     1
 62
     7
176
     1
 62
   257
176
     1
 90
        1
176
     1
 90
        1
176
     1
 40
1.0
176
     1
 90
        0
176
     1
 62
   257
176
     1
 40
1.0
176
     1
 90
        1
176
     1
 90
        6
176
     1
 90
        2
176
     1
 62
     7
176
     1
 90
        5
176
     1
 90
        0
176
     1
 90
        0
176
     1
290
     0
176
     1
 90
        1
176
     1
 40
0.0
176
     1
 90
        0
176
     1
290
     1
176
     1
290
     1
176
     1
290
     0
176
     1
290
     0
176
     1
290
     0
176
     1
290
     0
176
     1
290
     0
176
     1
290
     0
176
     1
290
     0
176
     1
 90
       50
176
     1
 40
0.0
176
     1
 40
1.0
176
     1
 90
        0
176
     1
 62
    18
420
        0
176
     1
 90
       50
176
     1
 90
        3
176
     1
 62
     5
420
      255
176
     1
290
     0
176
     1
 90
       50
176
     1
 90
       50
176
     1
 90
       50
176
     1
290
     0
176
     1
 90
       50
176
     1
 62
   256
176
     0
 40
1.0
176
     0
 90
        2
176
     1
  1
strokes_ogs.tif
176
     1
290
     0
176
     1
 40
1.0
176
     1
 40
1.0
176
     1
  0
VISUALSTYLE
  5
32
102
{ACAD_REACTORS
330
2A
102
}
330
2A
100
AcDbVisualStyle
  2
Basic
 70
     7
177
     3
291
     1
 70
    58
 90
        1
176
     1
 90
        0
176
     1
 90
        1
176
     1
 90
        0
176
     1
 40
0.6
176
     1
 40
30.0
176
     1
 62
     7
420
 16777215
176
     1
 90
        0
176
     1
 90
        4
176
     1
 62
     7
176
     1
 62
   257
176
     1
 90
        1
176
     1
 90
        1
176
     1
 40
1.0
176
     1
 90
        8
176
     1
 62
     7
176
     1
 40
1.0
176
     1
 90
        1
176
     1
 90
        6
176
     1
 90
        2
176
     1
 62
     7
176
     1
 90
        5
176
     1
 90
        0
176
     1
 90
        0
176
     1
290
     0
176
     1
 90
        1
176
     1
 40
0.0
176
     1
 90
        0
176
     1
290
     0
176
     1
290
     1
176
     1
290
     1
176
     1
290
     0
176
     1
290
     0
176
     1
290
     0
176
     1
290
     0
176
     1
290
     0
176
     1
290
     0
176
     1
 90
       50
176
     1
 40
0.0
176
     1
 40
1.0
176
     1
 90
        0
176
     1
 62
    18
420
        0
176
     1
 90
       50
176
     1
 90
        3
176
     1
 62
     5
420
      255
176
     1
290
     0
176
     1
 90
       50
176
     1
 90
       50
176
     1
 90
       50
176
     1
290
     0
176
     1
 90
       50
176
     1
 62
   256
176
     0
 40
1.0
176
     0
 90
        2
176
     1
  1
strokes_ogs.tif
176
     1
290
     0
176
     1
 40
1.0
176
     1
 40
1.0
176
     1
  0
VISUALSTYLE
  5
36
102
{ACAD_REACTORS
330
2A
102
}
330
2A
100
AcDbVisualStyle
  2
Brighten
 70
    12
177
     3
291
     1
 70
    58
 90
        2
176
     1
 90
        2
176
     1
 90
        0
176
     1
 90
        0
176
     1
 40
0.6
176
     1
 40
30.0
176
     1
 62
     7
420
 16777215
176
     1
 90
        1
176
     1
 90
        4
176
     1
 62
     7
176
     1
 62
   257
176
     1
 90
        1
176
     1
 90
        1
176
     1
 40
1.0
176
     1
 90
        8
176
     1
 62
     7
176
     1
 40
1.0
176
     1
 90
        1
176
     1
 90
        6
176
     1
 90
        2
176
     1
 62
     7
176
     1
 90
        5
176
     1
 90
        0
176
     1
 90
        0
176
     1
290
     0
176
     1
 90
        1
176
     1
 40
50.0
176
     1
 90
        0
176
     1
290
     0
176
     1
290
     1
176
     1
290
     1
176
     1
290
     0
176
     1
290
     0
176
     1
290
     0
176
     1
290
     0
176
     1
290
     0
176
     1
290
     0
176
     1
 90
       50
176
     1
 40
0.0
176
     1
 40
1.0
176
     1
 90
        0
176
     1
 62
    18
420
        0
176
     1
 90
       50
176
     1
 90
        3
176
     1
 62
     5
420
      255
176
     1
290
     0
176
     1
 90
       50
176
     1
 90
       50
176
     1
 90
       50
176
     1
290
     0
176
     1
 90
       50
176
     1
 62
   256
176
     0
 40
1.0
176
     0
 90
        2
176
     1
  1
strokes_ogs.tif
176
     1
290
     0
176
     1
 40
1.0
176
     1
 40
1.0
176
     1
  0
VISUALSTYLE
  5
3A
102
{ACAD_REACTORS
330
2A
102
}
330
2A
100
AcDbVisualStyle
  2
ColorChange
 70
    16
177
     3
291
     1
 70
    58
 90
        2
176
     1
 90
        2
176
     1
 90
        3
176
     1
 90
        0
176
     1
 40
0.6
176
     1
 40
30.0
176
     1
 62
     8
420
  8421504
176
     1
 90
        1
176
     1
 90
        4
176
     1
 62
     7
176
     1
 62
   257
176
     1
 90
        1
176
     1
 90
        1
176
     1
 40
1.0
176
     1
 90
        8
176
     1
 62
     8
420
  8421504
176
     1
 40
1.0
176
     1
 90
        1
176
     1
 90
        6
176
     1
 90
        2
176
     1
 62
     7
176
     1
 90
        5
176
     1
 90
        0
176
     1
 90
        0
176
     1
290
     0
176
     1
 90
        1
176
     1
 40
0.0
176
     1
 90
        0
176
     1
290
     0
176
     1
290
     1
176
     1
290
     1
176
     1
290
     0
176
     1
290
     0
176
     1
290
     0
176
     1
290
     0
176
     1
290
     0
176
     1
290
     0
176
     1
 90
       50
176
     1
 40
0.0
176
     1
 40
1.0
176
     1
 90
        0
176
     1
 62
    18
420
        0
176
     1
 90
       50
176
     1
 90
        3
176
     1
 62
     5
420
      255
176
     1
290
     0
176
     1
 90
       50
176
     1
 90
       50
176
     1
 90
       50
176
     1
290
     0
176
     1
 90
       50
176
     1
 62
   256
176
     0
 40
1.0
176
     0
 90
        2
176
     1
  1
strokes_ogs.tif
176
     1
290
     0
176
     1
 40
1.0
176
     1
 40
1.0
176
     1
  0
VISUALSTYLE
  5
34
102
{ACAD_REACTORS
330
2A
102
}
330
2A
100
AcDbVisualStyle
  2
Conceptual
 70
     9
177
     3
291
     0
 70
    58
 90
        3
176
     1
 90
        2
176
     1
 90
        0
176
     1
 90
        0
176
     1
 40
0.6
176
     1
 40
30.0
176
     1
 62
     7
420
 16777215
176
     1
 90
        2
176
     1
 90
        2
176
     1
 62
     7
176
     1
 62
   257
176
     1
 90
        1
176
     1
 90
        1
176
     1
 40
179.0
176
     1
 90
        8
176
     1
 62
     7
176
     1
 40
1.0
176
     1
 90
        1
176
     1
 90
        6
176
     1
 90
        2
176
     1
 62
     7
176
     1
 90
        3
176
     1
 90
        0
176
     1
 90
        0
176
     1
290
     0
176
     1
 90
        1
176
     1
 40
0.0
176
     1
 90
        0
176
     1
290
     0
176
     1
290
     1
176
     1
290
     1
176
     1
290
     0
176
     1
290
     0
176
     1
290
     0
176
     1
290
     0
176
     1
290
     0
176
     1
290
     0
176
     1
 90
       50
176
     1
 40
0.0
176
     1
 40
1.0
176
     1
 90
        0
176
     1
 62
    18
420
        0
176
     1
 90
       50
176
     1
 90
        3
176
     1
 62
     5
420
      255
176
     1
290
     0
176
     1
 90
       50
176
     1
 90
       50
176
     1
 90
       50
176
     1
290
     0
176
     1
 90
       50
176
     1
 62
   256
176
     0
 40
1.0
176
     0
 90
        2
176
     1
  1
strokes_ogs.tif
176
     1
290
     0
176
     1
 40
1.0
176
     1
 40
1.0
176
     1
  0
VISUALSTYLE
  5
35
102
{ACAD_REACTORS
330
2A
102
}
330
2A
100
AcDbVisualStyle
  2
Dim
 70
    11
177
     3
291
     1
 70
    58
 90
        2
176
     1
 90
        2
176
     1
 90
        0
176
     1
 90
        0
176
     1
 40
0.6
176
     1
 40
30.0
176
     1
 62
     7
420
 16777215
176
     1
 90
        1
176
     1
 90
        4
176
     1
 62
     7
176
     1
 62
   257
176
     1
 90
        1
176
     1
 90
        1
176
     1
 40
1.0
176
     1
 90
        8
176
     1
 62
     7
176
     1
 40
1.0
176
     1
 90
        1
176
     1
 90
        6
176
     1
 90
        2
176
     1
 62
     7
176
     1
 90
        5
176
     1
 90
        0
176
     1
 90
        0
176
     1
290
     0
176
     1
 90
        1
176
     1
 40
-50.0
176
     1
 90
        0
176
     1
290
     0
176
     1
290
     1
176
     1
290
     1
176
     1
290
     0
176
     1
290
     0
176
     1
290
     0
176
     1
290
     0
176
     1
290
     0
176
     1
290
     0
176
     1
 90
       50
176
     1
 40
0.0
176
     1
 40
1.0
176
     1
 90
        0
176
     1
 62
    18
420
        0
176
     1
 90
       50
176
     1
 90
        3
176
     1
 62
     5
420
      255
176
     1
290
     0
176
     1
 90
       50
176
     1
 90
       50
176
     1
 90
       50
176
     1
290
     0
176
     1
 90
       50
176
     1
 62
   256
176
     0
 40
1.0
176
     0
 90
        2
176
     1
  1
strokes_ogs.tif
176
     1
290
     0
176
     1
 40
1.0
176
     1
 40
1.0
176
     1
  0
VISUALSTYLE
  5
3D
102
{ACAD_REACTORS
330
2A
102
}
330
2A
100
AcDbVisualStyle
  2
EdgeColorOff
 70
    22
177
     3
291
     1
 70
    58
 90
        2
176
     0
 90
        2
176
     0
 90
        0
176
     0
 90
        0
176
     0
 40
0.6
176
     0
 40
30.0
176
     0
 62
     7
420
 16777215
176
     0
 90
        1
176
     0
 90
        4
176
     0
 62
     7
176
     0
 62
   257
176
     0
 90
        1
176
     0
 90
        1
176
     0
 40
1.0
176
     0
 90
        8
176
     2
 62
     7
176
     0
 40
1.0
176
     0
 90
        1
176
     0
 90
        6
176
     0
 90
        2
176
     0
 62
     7
176
     0
 90
        5
176
     0
 90
        0
176
     0
 90
        0
176
     0
290
     0
176
     0
 90
        1
176
     0
 40
0.0
176
     0
 90
        0
176
     0
290
     0
176
     0
290
     1
176
     0
290
     1
176
     0
290
     0
176
     0
290
     0
176
     0
290
     0
176
     0
290
     0
176
     0
290
     0
176
     0
290
     0
176
     0
 90
       50
176
     0
 40
0.0
176
     0
 40
1.0
176
     0
 90
        0
176
     0
 62
    18
420
        0
176
     0
 90
       50
176
     0
 90
        3
176
     0
 62
     5
420
      255
176
     0
290
     0
176
     0
 90
       50
176
     0
 90
       50
176
     0
 90
       50
176
     0
290
     0
176
     0
 90
       50
176
     0
 62
   256
176
     0
 40
1.0
176
     0
 90
        2
176
     0
  1
strokes_ogs.tif
176
     0
290
     0
176
     0
 40
1.0
176
     0
 40
1.0
176
     0
  0
VISUALSTYLE
  5
39
102
{ACAD_REACTORS
330
2A
102
}
330
2A
100
AcDbVisualStyle
  2
Facepattern
 70
    15
177
     3
291
     1
 70
    58
 90
        2
176
     1
 90
        2
176
     1
 90
        0
176
     1
 90
        0
176
     1
 40
0.6
176
     1
 40
30.0
176
     1
 62
     7
420
 16777215
176
     1
 90
        1
176
     1
 90
        4
176
     1
 62
     7
176
     1
 62
   257
176
     1
 90
        1
176
     1
 90
        1
176
     1
 40
1.0
176
     1
 90
        8
176
     1
 62
     7
176
     1
 40
1.0
176
     1
 90
        1
176
     1
 90
        6
176
     1
 90
        2
176
     1
 62
     7
176
     1
 90
        5
176
     1
 90
        0
176
     1
 90
        0
176
     1
290
     0
176
     1
 90
        1
176
     1
 40
0.0
176
     1
 90
        0
176
     1
290
     0
176
     1
290
     1
176
     1
290
     1
176
     1
290
     0
176
     1
290
     0
176
     1
290
     0
176
     1
290
     0
176
     1
290
     0
176
     1
290
     0
176
     1
 90
       50
176
     1
 40
0.0
176
     1
 40
1.0
176
     1
 90
        0
176
     1
 62
    18
420
        0
176
     1
 90
       50
176
     1
 90
        3
176
     1
 62
     5
420
      255
176
     1
290
     0
176
     1
 90
       50
176
     1
 90
       50
176
     1
 90
       50
176
     1
290
     0
176
     1
 90
       50
176
     1
 62
   256
176
     0
 40
1.0
176
     0
 90
        2
176
     1
  1
strokes_ogs.tif
176
     1
290
     0
176
     1
 40
1.0
176
     1
 40
1.0
176
     1
  0
VISUALSTYLE
  5
2B
102
{ACAD_REACTORS
330
2A
102
}
330
2A
100
AcDbVisualStyle
  2
Flat
 70
     0
177
     3
291
     1
 70
    58
 90
        2
176
     1
 90
        1
176
     1
 90
        1
176
     1
 90
        2
176
     1
 40
0.6
176
     1
 40
30.0
176
     1
 62
     7
420
 16777215
176
     1
 90
        0
176
     1
 90
        0
176
     1
 62
     7
176
     1
 62
   257
176
     1
 90
        1
176
     1
 90
        1
176
     1
 40
1.0
176
     1
 90
        8
176
     1
 62
     7
176
     1
 40
1.0
176
     1
 90
        1
176
     1
 90
        6
176
     1
 90
        2
176
     1
 62
     7
176
     1
 90
        5
176
     1
 90
        0
176
     1
 90
        0
176
     1
290
     0
176
     1
 90
       13
176
     1
 40
0.0
176
     1
 90
        0
176
     1
290
     0
176
     1
290
     1
176
     1
290
     1
176
     1
290
     0
176
     1
290
     0
176
     1
290
     0
176
     1
290
     0
176
     1
290
     0
176
     1
290
     0
176
     1
 90
       50
176
     1
 40
0.0
176
     1
 40
1.0
176
     1
 90
        0
176
     1
 62
    18
420
        0
176
     1
 90
       50
176
     1
 90
        3
176
     1
 62
     5
420
      255
176
     1
290
     0
176
     1
 90
       50
176
     1
 90
       50
176
     1
 90
       50
176
     1
290
     0
176
     1
 90
       50
176
     1
 62
   256
176
     0
 40
1.0
176
     0
 90
        2
176
     1
  1
strokes_ogs.tif
176
     1
290
     0
176
     1
 40
1.0
176
     1
 40
1.0
176
     1
  0
VISUALSTYLE
  5
2C
102
{ACAD_REACTORS
330
2A
102
}
330
2A
100
AcDbVisualStyle
  2
FlatWithEdges
 70
     1
177
     3
291
     1
 70
    58
 90
        2
176
     1
 90
        1
176
     1
 90
        1
176
     1
 90
        2
176
     1
 40
0.6
176
     1
 40
30.0
176
     1
 62
     7
420
 16777215
176
     1
 90
        1
176
     1
 90
        0
176
     1
 62
     7
176
     1
 62
   257
176
     1
 90
        1
176
     1
 90
        1
176
     1
 40
1.0
176
     1
 90
        0
176
     1
 62
   257
176
     1
 40
1.0
176
     1
 90
        1
176
     1
 90
        6
176
     1
 90
        2
176
     1
 62
     7
176
     1
 90
        5
176
     1
 90
        0
176
     1
 90
        0
176
     1
290
     0
176
     1
 90
       13
176
     1
 40
0.0
176
     1
 90
        0
176
     1
290
     0
176
     1
290
     1
176
     1
290
     1
176
     1
290
     0
176
     1
290
     0
176
     1
290
     0
176
     1
290
     0
176
     1
290
     0
176
     1
290
     0
176
     1
 90
       50
176
     1
 40
0.0
176
     1
 40
1.0
176
     1
 90
        0
176
     1
 62
    18
420
        0
176
     1
 90
       50
176
     1
 90
        3
176
     1
 62
     5
420
      255
176
     1
290
     0
176
     1
 90
       50
176
     1
 90
       50
176
     1
 90
       50
176
     1
290
     0
176
     1
 90
       50
176
     1
 62
   256
176
     0
 40
1.0
176
     0
 90
        2
176
     1
  1
strokes_ogs.tif
176
     1
290
     0
176
     1
 40
1.0
176
     1
 40
1.0
176
     1
  0
VISUALSTYLE
  5
2D
102
{ACAD_REACTORS
330
2A
102
}
330
2A
100
AcDbVisualStyle
  2
Gouraud
 70
     2
177
     3
291
     1
 70
    58
 90
        2
176
     1
 90
        2
176
     1
 90
        1
176
     1
 90
        2
176
     1
 40
0.6
176
     1
 40
30.0
176
     1
 62
     7
420
 16777215
176
     1
 90
        0
176
     1
 90
        0
176
     1
 62
     7
176
     1
 62
   257
176
     1
 90
        1
176
     1
 90
        1
176
     1
 40
1.0
176
     1
 90
        0
176
     1
 62
     7
176
     1
 40
1.0
176
     1
 90
        1
176
     1
 90
        6
176
     1
 90
        2
176
     1
 62
     7
176
     1
 90
        5
176
     1
 90
        0
176
     1
 90
        0
176
     1
290
     0
176
     1
 90
       13
176
     1
 40
0.0
176
     1
 90
        0
176
     1
290
     0
176
     1
290
     1
176
     1
290
     1
176
     1
290
     0
176
     1
290
     0
176
     1
290
     0
176
     1
290
     0
176
     1
290
     0
176
     1
290
     0
176
     1
 90
       50
176
     1
 40
0.0
176
     1
 40
1.0
176
     1
 90
        0
176
     1
 62
    18
420
        0
176
     1
 90
       50
176
     1
 90
        3
176
     1
 62
     5
420
      255
176
     1
290
     0
176
     1
 90
       50
176
     1
 90
       50
176
     1
 90
       50
176
     1
290
     0
176
     1
 90
       50
176
     1
 62
   256
176
     0
 40
1.0
176
     0
 90
        2
176
     1
  1
strokes_ogs.tif
176
     1
290
     0
176
     1
 40
1.0
176
     1
 40
1.0
176
     1
  0
VISUALSTYLE
  5
2E
102
{ACAD_REACTORS
330
2A
102
}
330
2A
100
AcDbVisualStyle
  2
GouraudWithEdges
 70
     3
177
     3
291
     1
 70
    58
 90
        2
176
     1
 90
        2
176
     1
 90
        1
176
     1
 90
        2
176
     1
 40
0.6
176
     1
 40
30.0
176
     1
 62
     7
420
 16777215
176
     1
 90
        1
176
     1
 90
        0
176
     1
 62
     7
176
     1
 62
   257
176
     1
 90
        1
176
     1
 90
        1
176
     1
 40
1.0
176
     1
 90
        0
176
     1
 62
   257
176
     1
 40
1.0
176
     1
 90
        1
176
     1
 90
        6
176
     1
 90
        2
176
     1
 62
     7
176
     1
 90
        5
176
     1
 90
        0
176
     1
 90
        0
176
     1
290
     0
176
     1
 90
       13
176
     1
 40
0.0
176
     1
 90
        0
176
     1
290
     0
176
     1
290
     1
176
     1
290
     1
176
     1
290
     0
176
     1
290
     0
176
     1
290
     0
176
     1
290
     0
176
     1
290
     0
176
     1
290
     0
176
     1
 90
       50
176
     1
 40
0.0
176
     1
 40
1.0
176
     1
 90
        0
176
     1
 62
    18
420
        0
176
     1
 90
       50
176
     1
 90
        3
176
     1
 62
     5
420
      255
176
     1
290
     0
176
     1
 90
       50
176
     1
 90
       50
176
     1
 90
       50
176
     1
290
     0
176
     1
 90
       50
176
     1
 62
   256
176
     0
 40
1.0
176
     0
 90
        2
176
     1
  1
strokes_ogs.tif
176
     1
290
     0
176
     1
 40
1.0
176
     1
 40
1.0
176
     1
  0
VISUALSTYLE
  5
31
102
{ACAD_REACTORS
330
2A
102
}
330
2A
100
AcDbVisualStyle
  2
Hidden
 70
     6
177
     3
291
     0
 70
    58
 90
        1
176
     1
 90
        2
176
     1
 90
        2
176
     1
 90
        0
176
     1
 40
0.6
176
     1
 40
30.0
176
     1
 62
     7
420
 16777215
176
     1
 90
        2
176
     1
 90
        2
176
     1
 62
     7
176
     1
 62
   257
176
     1
 90
        2
176
     1
 90
        1
176
     1
 40
40.0
176
     1
 90
        0
176
     1
 62
   257
176
     1
 40
1.0
176
     1
 90
        1
176
     1
 90
        6
176
     1
 90
        2
176
     1
 62
     7
176
     1
 90
        3
176
     1
 90
        0
176
     1
 90
        0
176
     1
290
     0
176
     1
 90
        1
176
     1
 40
0.0
176
     1
 90
        0
176
     1
290
     0
176
     1
290
     1
176
     1
290
     1
176
     1
290
     0
176
     1
290
     0
176
     1
290
     0
176
     1
290
     0
176
     1
290
     0
176
     1
290
     0
176
     1
 90
       50
176
     1
 40
0.0
176
     1
 40
1.0
176
     1
 90
        0
176
     1
 62
    18
420
        0
176
     1
 90
       50
176
     1
 90
        3
176
     1
 62
     5
420
      255
176
     1
290
     0
176
     1
 90
       50
176
     1
 90
       50
176
     1
 90
       50
176
     1
290
     0
176
     1
 90
       50
176
     1
 62
   256
176
     0
 40
1.0
176
     0
 90
        2
176
     1
  1
strokes_ogs.tif
176
     1
290
     0
176
     1
 40
1.0
176
     1
 40
1.0
176
     1
  0
VISUALSTYLE
  5
3B
102
{ACAD_REACTORS
330
2A
102
}
330
2A
100
AcDbVisualStyle
  2
JitterOff
 70
    20
177
     3
291
     1
 70
    58
 90
        2
176
     0
 90
        2
176
     0
 90
        0
176
     0
 90
        0
176
     0
 40
0.6
176
     0
 40
30.0
176
     0
 62
     7
420
 16777215
176
     0
 90
        1
176
     0
 90
        4
176
     0
 62
     7
176
     0
 62
   257
176
     0
 90
        1
176
     0
 90
        1
176
     0
 40
1.0
176
     0
 90
       10
176
     2
 62
     7
176
     0
 40
1.0
176
     0
 90
        1
176
     0
 90
        6
176
     0
 90
        2
176
     0
 62
     7
176
     0
 90
        5
176
     0
 90
        0
176
     0
 90
        0
176
     0
290
     0
176
     0
 90
        1
176
     0
 40
0.0
176
     0
 90
        0
176
     0
290
     0
176
     0
290
     1
176
     0
290
     1
176
     0
290
     0
176
     0
290
     0
176
     0
290
     0
176
     0
290
     0
176
     0
290
     0
176
     0
290
     0
176
     0
 90
       50
176
     0
 40
0.0
176
     0
 40
1.0
176
     0
 90
        0
176
     0
 62
    18
420
        0
176
     0
 90
       50
176
     0
 90
        3
176
     0
 62
     5
420
      255
176
     0
290
     0
176
     0
 90
       50
176
     0
 90
       50
176
     0
 90
       50
176
     0
290
     0
176
     0
 90
       50
176
     0
 62
   256
176
     0
 40
1.0
176
     0
 90
        2
176
     0
  1
strokes_ogs.tif
176
     0
290
     0
176
     0
 40
1.0
176
     0
 40
1.0
176
     0
  0
VISUALSTYLE
  5
38
102
{ACAD_REACTORS
330
2A
102
}
330
2A
100
AcDbVisualStyle
  2
Linepattern
 70
    14
177
     3
291
     1
 70
    58
 90
        2
176
     1
 90
        2
176
     1
 90
        0
176
     1
 90
        0
176
     1
 40
0.6
176
     1
 40
30.0
176
     1
 62
     7
420
 16777215
176
     1
 90
        1
176
     1
 90
        4
176
     1
 62
     7
176
     1
 62
   257
176
     1
 90
        7
176
     1
 90
        7
176
     1
 40
1.0
176
     1
 90
        8
176
     1
 62
     7
176
     1
 40
1.0
176
     1
 90
        1
176
     1
 90
        6
176
     1
 90
        2
176
     1
 62
     7
176
     1
 90
        5
176
     1
 90
        0
176
     1
 90
        0
176
     1
290
     0
176
     1
 90
        1
176
     1
 40
0.0
176
     1
 90
        0
176
     1
290
     0
176
     1
290
     1
176
     1
290
     1
176
     1
290
     0
176
     1
290
     0
176
     1
290
     0
176
     1
290
     0
176
     1
290
     0
176
     1
290
     0
176
     1
 90
       50
176
     1
 40
0.0
176
     1
 40
1.0
176
     1
 90
        0
176
     1
 62
    18
420
        0
176
     1
 90
       50
176
     1
 90
        3
176
     1
 62
     5
420
      255
176
     1
290
     0
176
     1
 90
       50
176
     1
 90
       50
176
     1
 90
       50
176
     1
290
     0
176
     1
 90
       50
176
     1
 62
   256
176
     0
 40
1.0
176
     0
 90
        2
176
     1
  1
strokes_ogs.tif
176
     1
290
     0
176
     1
 40
1.0
176
     1
 40
1.0
176
     1
  0
VISUALSTYLE
  5
3C
102
{ACAD_REACTORS
330
2A
102
}
330
2A
100
AcDbVisualStyle
  2
OverhangOff
 70
    21
177
     3
291
     1
 70
    58
 90
        2
176
     0
 90
        2
176
     0
 90
        0
176
     0
 90
        0
176
     0
 40
0.6
176
     0
 40
30.0
176
     0
 62
     7
420
 16777215
176
     0
 90
        1
176
     0
 90
        4
176
     0
 62
     7
176
     0
 62
   257
176
     0
 90
        1
176
     0
 90
        1
176
     0
 40
1.0
176
     0
 90
        9
176
     2
 62
     7
176
     0
 40
1.0
176
     0
 90
        1
176
     0
 90
        6
176
     0
 90
        2
176
     0
 62
     7
176
     0
 90
        5
176
     0
 90
        0
176
     0
 90
        0
176
     0
290
     0
176
     0
 90
        1
176
     0
 40
0.0
176
     0
 90
        0
176
     0
290
     0
176
     0
290
     1
176
     0
290
     1
176
     0
290
     0
176
     0
290
     0
176
     0
290
     0
176
     0
290
     0
176
     0
290
     0
176
     0
290
     0
176
     0
 90
       50
176
     0
 40
0.0
176
     0
 40
1.0
176
     0
 90
        0
176
     0
 62
    18
420
        0
176
     0
 90
       50
176
     0
 90
        3
176
     0
 62
     5
420
      255
176
     0
290
     0
176
     0
 90
       50
176
     0
 90
       50
176
     0
 90
       50
176
     0
290
     0
176
     0
 90
       50
176
     0
 62
   256
176
     0
 40
1.0
176
     0
 90
        2
176
     0
  1
strokes_ogs.tif
176
     0
290
     0
176
     0
 40
1.0
176
     0
 40
1.0
176
     0
  0
VISUALSTYLE
  5
33
102
{ACAD_REACTORS
330
2A
102
}
330
2A
100
AcDbVisualStyle
  2
Realistic
 70
     8
177
     3
291
     0
 70
    58
 90
        2
176
     1
 90
        3
176
     1
 90
        0
176
     1
 90
        2
176
     1
 40
0.6
176
     1
 40
30.0
176
     1
 62
     7
420
 16777215
176
     1
 90
        0
176
     1
 90
        0
176
     1
 62
     7
176
     1
 62
   257
176
     1
 90
        1
176
     1
 90
        1
176
     1
 40
1.0
176
     1
 90
        8
176
     1
 62
   257
176
     1
 40
1.0
176
     1
 90
        1
176
     1
 90
        6
176
     1
 90
        2
176
     1
 62
     7
176
     1
 90
        3
176
     1
 90
        0
176
     1
 90
        0
176
     1
290
     0
176
     1
 90
       13
176
     1
 40
0.0
176
     1
 90
        0
176
     1
290
     0
176
     1
290
     1
176
     1
290
     1
176
     1
290
     0
176
     1
290
     0
176
     1
290
     0
176
     1
290
     0
176
     1
290
     0
176
     1
290
     0
176
     1
 90
       50
176
     1
 40
0.0
176
     1
 40
1.0
176
     1
 90
        0
176
     1
 62
    18
420
        0
176
     1
 90
       50
176
     1
 90
        3
176
     1
 62
     5
420
      255
176
     1
290
     0
176
     1
 90
       50
176
     1
 90
       50
176
     1
 90
       50
176
     1
290
     0
176
     1
 90
       50
176
     1
 62
   256
176
     0
 40
1.0
176
     0
 90
        2
176
     1
  1
strokes_ogs.tif
176
     1
290
     0
176
     1
 40
1.0
176
     1
 40
1.0
176
     1
  0
VISUALSTYLE
  5
42
102
{ACAD_REACTORS
330
2A
102
}
330
2A
100
AcDbVisualStyle
  2
Shaded
 70
    27
177
     3
291
     0
 70
    58
 90
        2
176
     1
 90
        2
176
     1
 90
        1
176
     1
 90
        2
176
     1
 40
0.6
176
     1
 40
30.0
176
     1
 62
     7
420
 16777215
176
     1
 90
        0
176
     1
 90
        4
176
     1
 62
     7
176
     1
 62
   257
176
     1
 90
        1
176
     1
 90
        1
176
     1
 40
1.0
176
     1
 90
        8
176
     1
 62
   257
176
     1
 40
1.0
176
     1
 90
        1
176
     1
 90
        6
176
     1
 90
        2
176
     1
 62
     8
420
  7895160
176
     1
 90
        3
176
     1
 90
        0
176
     1
 90
        0
176
     1
290
     0
176
     1
 90
        5
176
     1
 40
0.0
176
     1
 90
        0
176
     1
290
     0
176
     1
290
     1
176
     1
290
     1
176
     1
290
     0
176
     1
290
     0
176
     1
290
     0
176
     1
290
     0
176
     1
290
     0
176
     1
290
     0
176
     1
 90
       50
176
     1
 40
0.0
176
     1
 40
1.0
176
     1
 90
        0
176
     1
 62
    18
420
        0
176
     1
 90
       50
176
     1
 90
        3
176
     1
 62
     5
420
      255
176
     1
290
     0
176
     1
 90
       50
176
     1
 90
       50
176
     1
 90
       50
176
     1
290
     0
176
     1
 90
       50
176
     1
 62
   256
176
     0
 40
1.0
176
     0
 90
        2
176
     1
  1
strokes_ogs.tif
176
     1
290
     0
176
     1
 40
1.0
176
     1
 40
1.0
176
     1
  0
VISUALSTYLE
  5
41
102
{ACAD_REACTORS
330
2A
102
}
330
2A
100
AcDbVisualStyle
  2
Shaded with edges
 70
    26
177
     3
291
     0
 70
    58
 90
        2
176
     1
 90
        2
176
     1
 90
        1
176
     1
 90
        2
176
     1
 40
0.6
176
     1
 40
30.0
176
     1
 62
     7
420
 16777215
176
     1
 90
        1
176
     1
 90
       10
176
     1
 62
     7
176
     1
 62
   257
176
     1
 90
        2
176
     1
 90
        1
176
     1
 40
1.0
176
     1
 90
        8
176
     1
 62
   257
176
     1
 40
1.0
176
     1
 90
        1
176
     1
 90
        6
176
     1
 90
        2
176
     1
 62
     7
176
     1
 90
        3
176
     1
 90
        0
176
     1
 90
        0
176
     1
290
     0
176
     1
 90
        5
176
     1
 40
0.0
176
     1
 90
        0
176
     1
290
     0
176
     1
290
     1
176
     1
290
     1
176
     1
290
     0
176
     1
290
     0
176
     1
290
     0
176
     1
290
     0
176
     1
290
     0
176
     1
290
     0
176
     1
 90
       50
176
     1
 40
0.0
176
     1
 40
1.0
176
     1
 90
        0
176
     1
 62
    18
420
        0
176
     1
 90
       50
176
     1
 90
        3
176
     1
 62
     5
420
      255
176
     1
290
     0
176
     1
 90
       50
176
     1
 90
       50
176
     1
 90
       50
176
     1
290
     0
176
     1
 90
       50
176
     1
 62
   256
176
     0
 40
1.0
176
     0
 90
        2
176
     1
  1
strokes_ogs.tif
176
     1
290
     0
176
     1
 40
1.0
176
     1
 40
1.0
176
     1
  0
VISUALSTYLE
  5
3E
102
{ACAD_REACTORS
330
2A
102
}
330
2A
100
AcDbVisualStyle
  2
Shades of Gray
 70
    23
177
     3
291
     0
 70
    58
 90
        2
176
     1
 90
        2
176
     1
 90
        3
176
     1
 90
        0
176
     1
 40
0.6
176
     1
 40
30.0
176
     1
 62
     7
420
 16777215
176
     1
 90
        2
176
     1
 90
        2
176
     1
 62
     7
176
     1
 62
     7
176
     1
 90
        1
176
     1
 90
        1
176
     1
 40
40.0
176
     1
 90
        8
176
     1
 62
     7
176
     1
 40
1.0
176
     1
 90
        1
176
     1
 90
        6
176
     1
 90
        2
176
     1
 62
     7
176
     1
 90
        3
176
     1
 90
        0
176
     1
 90
        0
176
     1
290
     0
176
     1
 90
        1
176
     1
 40
0.0
176
     1
 90
        0
176
     1
290
     0
176
     1
290
     1
176
     1
290
     1
176
     1
290
     0
176
     1
290
     0
176
     1
290
     0
176
     1
290
     0
176
     1
290
     0
176
     1
290
     0
176
     1
 90
       50
176
     1
 40
0.0
176
     1
 40
1.0
176
     1
 90
        0
176
     1
 62
    18
420
        0
176
     1
 90
       50
176
     1
 90
        3
176
     1
 62
     5
420
      255
176
     1
290
     0
176
     1
 90
       50
176
     1
 90
       50
176
     1
 90
       50
176
     1
290
     0
176
     1
 90
       50
176
     1
 62
   256
176
     0
 40
1.0
176
     0
 90
        2
176
     1
  1
strokes_ogs.tif
176
     1
290
     0
176
     1
 40
1.0
176
     1
 40
1.0
176
     1
  0
VISUALSTYLE
  5
3F
102
{ACAD_REACTORS
330
2A
102
}
330
2A
100
AcDbVisualStyle
  2
Sketchy
 70
    24
177
     3
291
     0
 70
    58
 90
        1
176
     1
 90
        2
176
     1
 90
        2
176
     1
 90
        0
176
     1
 40
0.6
176
     1
 40
30.0
176
     1
 62
     7
420
 16777215
176
     1
 90
        2
176
     1
 90
        2
176
     1
 62
     7
176
     1
 62
     7
176
     1
 90
        1
176
     1
 90
        1
176
     1
 40
40.0
176
     1
 90
       11
176
     1
 62
     7
176
     1
 40
1.0
176
     1
 90
        1
176
     1
 90
        6
176
     1
 90
        2
176
     1
 62
     7
176
     1
 90
        6
176
     1
 90
        0
176
     1
 90
        0
176
     1
290
     0
176
     1
 90
        1
176
     1
 40
0.0
176
     1
 90
        0
176
     1
290
     0
176
     1
290
     1
176
     1
290
     1
176
     1
290
     0
176
     1
290
     0
176
     1
290
     0
176
     1
290
     0
176
     1
290
     0
176
     1
290
     0
176
     1
 90
       50
176
     1
 40
0.0
176
     1
 40
1.0
176
     1
 90
        0
176
     1
 62
    18
420
        0
176
     1
 90
       50
176
     1
 90
        3
176
     1
 62
     5
420
      255
176
     1
290
     0
176
     1
 90
       50
176
     1
 90
       50
176
     1
 90
       50
176
     1
290
     0
176
     1
 90
       50
176
     1
 62
   256
176
     0
 40
1.0
176
     0
 90
        2
176
     1
  1
strokes_ogs.tif
176
     1
290
     0
176
     1
 40
1.0
176
     1
 40
1.0
176
     1
  0
VISUALSTYLE
  5
37
102
{ACAD_REACTORS
330
2A
102
}
330
2A
100
AcDbVisualStyle
  2
Thicken
 70
    13
177
     3
291
     1
 70
    58
 90
        2
176
     1
 90
        2
176
     1
 90
        0
176
     1
 90
        0
176
     1
 40
0.6
176
     1
 40
30.0
176
     1
 62
     7
420
 16777215
176
     1
 90
        1
176
     1
 90
        4
176
     1
 62
     7
176
     1
 62
   257
176
     1
 90
        1
176
     1
 90
        1
176
     1
 40
1.0
176
     1
 90
       12
176
     1
 62
     7
176
     1
 40
1.0
176
     1
 90
        1
176
     1
 90
        6
176
     1
 90
        2
176
     1
 62
     7
176
     1
 90
        5
176
     1
 90
        0
176
     1
 90
        0
176
     1
290
     0
176
     1
 90
        1
176
     1
 40
0.0
176
     1
 90
        0
176
     1
290
     0
176
     1
290
     1
176
     1
290
     1
176
     1
290
     0
176
     1
290
     0
176
     1
290
     0
176
     1
290
     0
176
     1
290
     0
176
     1
290
     0
176
     1
 90
       50
176
     1
 40
0.0
176
     1
 40
1.0
176
     1
 90
        0
176
     1
 62
    18
420
        0
176
     1
 90
       50
176
     1
 90
        3
176
     1
 62
     5
420
      255
176
     1
290
     0
176
     1
 90
       50
176
     1
 90
       50
176
     1
 90
       50
176
     1
290
     0
176
     1
 90
       50
176
     1
 62
   256
176
     0
 40
1.0
176
     0
 90
        2
176
     1
  1
strokes_ogs.tif
176
     1
290
     0
176
     1
 40
1.0
176
     1
 40
1.0
176
     1
  0
VISUALSTYLE
  5
30
102
{ACAD_REACTORS
330
2A
102
}
330
2A
100
AcDbVisualStyle
  2
Wireframe
 70
     5
177
     3
291
     0
 70
    58
 90
        0
176
     1
 90
        2
176
     1
 90
        0
176
     1
 90
        0
176
     1
 40
0.6
176
     1
 40
30.0
176
     1
 62
     7
420
 16777215
176
     1
 90
        1
176
     1
 90
        4
176
     1
 62
     7
176
     1
 62
   257
176
     1
 90
        1
176
     1
 90
        1
176
     1
 40
1.0
176
     1
 90
        0
176
     1
 62
   257
176
     1
 40
1.0
176
     1
 90
        1
176
     1
 90
        6
176
     1
 90
        2
176
     1
 62
     7
176
     1
 90
        3
176
     1
 90
        0
176
     1
 90
        0
176
     1
290
     0
176
     1
 90
        1
176
     1
 40
0.0
176
     1
 90
        0
176
     1
290
     0
176
     1
290
     1
176
     1
290
     1
176
     1
290
     0
176
     1
290
     0
176
     1
290
     0
176
     1
290
     0
176
     1
290
     0
176
     1
290
     0
176
     1
 90
       50
176
     1
 40
0.0
176
     1
 40
1.0
176
     1
 90
        0
176
     1
 62
    18
420
        0
176
     1
 90
       50
176
     1
 90
        3
176
     1
 62
     5
420
      255
176
     1
290
     0
176
     1
 90
       50
176
     1
 90
       50
176
     1
 90
       50
176
     1
290
     0
176
     1
 90
       50
176
     1
 62
   256
176
     0
 40
1.0
176
     0
 90
        2
176
     1
  1
strokes_ogs.tif
176
     1
290
     0
176
     1
 40
1.0
176
     1
 40
1.0
176
     1
  0
VISUALSTYLE
  5
40
102
{ACAD_REACTORS
330
2A
102
}
330
2A
100
AcDbVisualStyle
  2
X-Ray
 70
    25
177
     3
291
     0
 70
    58
 90
        2
176
     1
 90
        2
176
     1
 90
        1
176
     1
 90
        1
176
     1
 40
0.5
176
     1
 40
30.0
176
     1
 62
     7
420
 16777215
176
     1
 90
        1
176
     1
 90
        0
176
     1
 62
     7
176
     1
 62
   257
176
     1
 90
        1
176
     1
 90
        1
176
     1
 40
1.0
176
     1
 90
        8
176
     1
 62
     7
176
     1
 40
1.0
176
     1
 90
        1
176
     1
 90
        6
176
     1
 90
        2
176
     1
 62
     7
176
     1
 90
        3
176
     1
 90
        0
176
     1
 90
        0
176
     1
290
     0
176
     1
 90
       13
176
     1
 40
0.0
176
     1
 90
        0
176
     1
290
     0
176
     1
290
     1
176
     1
290
     1
176
     1
290
     0
176
     1
290
     0
176
     1
290
     0
176
     1
290
     0
176
     1
290
     0
176
     1
290
     0
176
     1
 90
       50
176
     1
 40
0.0
176
     1
 40
1.0
176
     1
 90
        0
176
     1
 62
    18
420
        0
176
     1
 90
       50
176
     1
 90
        3
176
     1
 62
     5
420
      255
176
     1
290
     0
176
     1
 90
       50
176
     1
 90
       50
176
     1
 90
       50
176
     1
290
     0
176
     1
 90
       50
176
     1
 62
   256
176
     0
 40
1.0
176
     0
 90
        2
176
     1
  1
strokes_ogs.tif
176
     1
290
     0
176
     1
 40
1.0
176
     1
 40
1.0
176
     1
  0
DICTIONARYVAR
  5
1C0
102
{ACAD_REACTORS
330
1BF
102
}
330
1BF
100
DictionaryVariables
280
     0
  1
1:1
  0
DICTIONARYVAR
  5
1C8
102
{ACAD_REACTORS
330
1BF
102
}
330
1BF
100
DictionaryVariables
280
     0
  1
3.500000
  0
DICTIONARYVAR
  5
1C9
102
{ACAD_REACTORS
330
1BF
102
}
330
1BF
100
DictionaryVariables
280
     0
  1
acadiso.lin
  0
DICTIONARYVAR
  5
1C5
102
{ACAD_REACTORS
330
1BF
102
}
330
1BF
100
DictionaryVariables
280
     0
  1
Standard
  0
DICTIONARYVAR
  5
1C4
102
{ACAD_REACTORS
330
1BF
102
}
330
1BF
100
DictionaryVariables
280
     0
  1
Standard
  0
DICTIONARY
  5
1C1
330
5A
100
AcDbDictionary
280
     1
281
     1
  3
ACAD_ROUNDTRIP_2008_TABLESTYLE_CELLSTYLEMAP
360
1C2
  0
CELLSTYLEMAP
  5
1C2
102
{ACAD_REACTORS
330
1C1
102
}
330
1C1
100
AcDbCellStyleMap
 90
        3
300
CELLSTYLE
  1
TABLEFORMAT_BEGIN
 90
        5
170
     1
 91
        0
 92
    32768
 62
   257
 93
        1
300
CONTENTFORMAT
  1
CONTENTFORMAT_BEGIN
 90
        0
 91
        0
 92
        4
 93
        0
300

 40
0.0
140
1.0
 94
        5
 62
     0
340
11
144
6.0
309
CONTENTFORMAT_END
171
     1
301
MARGIN
  1
CELLMARGIN_BEGIN
 40
1.5
 40
1.5
 40
1.5
 40
1.5
 40
1.5
 40
1.5
309
CELLMARGIN_END
 94
        6
 95
        1
302
GRIDFORMAT
  1
GRIDFORMAT_BEGIN
 90
        0
 91
        1
 62
     0
 92
       -2
340
14
 93
        0
 40
0.045
309
GRIDFORMAT_END
 95
        2
302
GRIDFORMAT
  1
GRIDFORMAT_BEGIN
 90
        0
 91
        1
 62
     0
 92
       -2
340
14
 93
        0
 40
0.045
309
GRIDFORMAT_END
 95
        4
302
GRIDFORMAT
  1
GRIDFORMAT_BEGIN
 90
        0
 91
        1
 62
     0
 92
       -2
340
14
 93
        0
 40
0.045
309
GRIDFORMAT_END
 95
        8
302
GRIDFORMAT
  1
GRIDFORMAT_BEGIN
 90
        0
 91
        1
 62
     0
 92
       -2
340
14
 93
        0
 40
0.045
309
GRIDFORMAT_END
 95
       16
302
GRIDFORMAT
  1
GRIDFORMAT_BEGIN
 90
        0
 91
        1
 62
     0
 92
       -2
340
14
 93
        0
 40
0.045
309
GRIDFORMAT_END
 95
       32
302
GRIDFORMAT
  1
GRIDFORMAT_BEGIN
 90
        0
 91
        1
 62
     0
 92
       -2
340
14
 93
        0
 40
0.045
309
GRIDFORMAT_END
309
TABLEFORMAT_END
  1
CELLSTYLE_BEGIN
 90
        1
 91
        1
300
_TITLE
309
CELLSTYLE_END
300
CELLSTYLE
  1
TABLEFORMAT_BEGIN
 90
        5
170
     1
 91
        0
 92
        0
 62
   257
 93
        1
300
CONTENTFORMAT
  1
CONTENTFORMAT_BEGIN
 90
        0
 91
        0
 92
        4
 93
        0
300

 40
0.0
140
1.0
 94
        5
 62
     0
340
11
144
4.5
309
CONTENTFORMAT_END
171
     1
301
MARGIN
  1
CELLMARGIN_BEGIN
 40
1.5
 40
1.5
 40
1.5
 40
1.5
 40
1.5
 40
1.5
309
CELLMARGIN_END
 94
        6
 95
        1
302
GRIDFORMAT
  1
GRIDFORMAT_BEGIN
 90
        0
 91
        1
 62
     0
 92
       -2
340
14
 93
        0
 40
0.045
309
GRIDFORMAT_END
 95
        2
302
GRIDFORMAT
  1
GRIDFORMAT_BEGIN
 90
        0
 91
        1
 62
     0
 92
       -2
340
14
 93
        0
 40
0.045
309
GRIDFORMAT_END
 95
        4
302
GRIDFORMAT
  1
GRIDFORMAT_BEGIN
 90
        0
 91
        1
 62
     0
 92
       -2
340
14
 93
        0
 40
0.045
309
GRIDFORMAT_END
 95
        8
302
GRIDFORMAT
  1
GRIDFORMAT_BEGIN
 90
        0
 91
        1
 62
     0
 92
       -2
340
14
 93
        0
 40
0.045
309
GRIDFORMAT_END
 95
       16
302
GRIDFORMAT
  1
GRIDFORMAT_BEGIN
 90
        0
 91
        1
 62
     0
 92
       -2
340
14
 93
        0
 40
0.045
309
GRIDFORMAT_END
 95
       32
302
GRIDFORMAT
  1
GRIDFORMAT_BEGIN
 90
        0
 91
        1
 62
     0
 92
       -2
340
14
 93
        0
 40
0.045
309
GRIDFORMAT_END
309
TABLEFORMAT_END
  1
CELLSTYLE_BEGIN
 90
        2
 91
        1
300
_HEADER
309
CELLSTYLE_END
300
CELLSTYLE
  1
TABLEFORMAT_BEGIN
 90
        5
170
     1
 91
        0
 92
        0
 62
   257
 93
        1
300
CONTENTFORMAT
  1
CONTENTFORMAT_BEGIN
 90
        0
 91
        0
 92
        4
 93
        0
300

 40
0.0
140
1.0
 94
        2
 62
     0
340
11
144
4.5
309
CONTENTFORMAT_END
171
     1
301
MARGIN
  1
CELLMARGIN_BEGIN
 40
1.5
 40
1.5
 40
1.5
 40
1.5
 40
1.5
 40
1.5
309
CELLMARGIN_END
 94
        6
 95
        1
302
GRIDFORMAT
  1
GRIDFORMAT_BEGIN
 90
        0
 91
        1
 62
     0
 92
       -2
340
14
 93
        0
 40
0.045
309
GRIDFORMAT_END
 95
        2
302
GRIDFORMAT
  1
GRIDFORMAT_BEGIN
 90
        0
 91
        1
 62
     0
 92
       -2
340
14
 93
        0
 40
0.045
309
GRIDFORMAT_END
 95
        4
302
GRIDFORMAT
  1
GRIDFORMAT_BEGIN
 90
        0
 91
        1
 62
     0
 92
       -2
340
14
 93
        0
 40
0.045
309
GRIDFORMAT_END
 95
        8
302
GRIDFORMAT
  1
GRIDFORMAT_BEGIN
 90
        0
 91
        1
 62
     0
 92
       -2
340
14
 93
        0
 40
0.045
309
GRIDFORMAT_END
 95
       16
302
GRIDFORMAT
  1
GRIDFORMAT_BEGIN
 90
        0
 91
        1
 62
     0
 92
       -2
340
14
 93
        0
 40
0.045
309
GRIDFORMAT_END
 95
       32
302
GRIDFORMAT
  1
GRIDFORMAT_BEGIN
 90
        0
 91
        1
 62
     0
 92
       -2
340
14
 93
        0
 40
0.045
309
GRIDFORMAT_END
309
TABLEFORMAT_END
  1
CELLSTYLE_BEGIN
 90
        3
 91
        2
300
_DATA
309
CELLSTYLE_END
  0
ENDSEC
  0
EOF
